Mrnorth - Sleeping Dogs Text Guitar Tab

Learn song with the online tabulature player
So this isn't completely correct but it's the best I can do by just listening to the 
Enjoy!

Sleeping Dogs by MrNorth

Intro/Verse (I):

|-----------------------------------------------|
|-----------10--12------------------10----------|
|------9-----------------------10---------------|
|--7----------------------7---------------------|
|---------------------8-------------------------|
|-----------------------------------------------|

Pre-Chorus (II):

|---------2-------------2--------------------1---|
|------------3--------------3--------------------|
|-----2------------2--------------------2--------|
|--0---------------------------------3-----------|
|----------------------------------3-------------|
|--------------------------------1---------------|

Chorus (III):

|-----------------------------------------------------------|
|------------1-----------1------------------0----------0----|
|----------------0----------0------------------0----------0-|
|------2--------------------------------0-------------------|
|--3-----------------3--------------2--------------2--------|
|-----------------------------------------------------------|

|----------------------------------------------------1------|
|----------3------------3------------------------3----------|
|-------------3------------3------------------0-------------|
|------0-------------------------------3--------------------|
|--1----------------1--------------3------------------------|
|------------------------------1----------------------------|

|-----------------------------------------------------------|
|------------1-----------1------------------0----------0----|
|----------------0----------0------------------0----------0-|
|------2--------------------------------0-------------------|
|--3-----------------3--------------2--------------2--------|
|-----------------------------------------------------------|

|----------------------------------1-(F)----1-(Dm)---1-(F)----|
|----------3------------3----------1--------3--------1--------|
|-------------3------------3-------2--------2--------2--------|
|------0---------------------------3--------0--------3--------|
|--1----------------1--------------3--------0--------3--------|
|----------------------------------1--------0--------1--------|


Order:

(I) x3
Who pulled this shade down on my life?
If I don't think straight, don't mean it's a lie.
If I had my way we'd be
(II)
sleeping now.
(I) x3
How much more do we need to talk
before the last hope gets up and walks?
If I had my way we'd be
(II)
dreaming now.

(III)
Honey they're sleeping dogs,
just let them lie 'cause you don't know where they've been last night.
Why would you wanna cry
and ruin those eyes?
Is it something you were born for?
You're a port in any storm or...

(I) x3
It takes all my strength
to look and not touch
when one or two words
are then words to much.
If I keep up my ways
you'll be
(II)
leaving soon.

(III)
Honey they're sleeping dogs,
just let them lie 'cause you don't know where they've been last night.
Why would you wanna cry
and ruin those eyes?
Is it something you were born for?
You're a port in any storm.
Or was it something to get torn for?
You're a port in any storm.

-ash