Mstrkrft - Street Justice Text Guitar Tab

Learn song with the online tabulature player
Guitar riff 1:

e|----7-9---------12-10-9/10/9/10/9---------7-9-------------7--------|
b|-10----------10------------------------10-----9~-------10---10-7~--|
G|-------------------------------------------------------------------|
D|-------------------------------------------------------------------|
A|-------------------------------------------------------------------|
E|-------------------------------------------------------------------|


Guitar riff 2:

e|----7-9---------12-10-9/10/9/10/9---------7-9------------------|
b|-10----------10------------------------10-----9~-----9--9h10-7-|
G|---------------------------------------------------------------|
D|---------------------------------------------------------------|
A|---------------------------------------------------------------|
E|---------------------------------------------------------------|



Offical Webbsite: www.mstrkrft.com