MUCC - Anjelier Text Guitar Tab

Learn the song with the online tablature player
Tab By Cat Pryor

intro
    Dmin
E|--5-x-x--|  |---------------------------------|
B|--6-x-x--|  |---------------------------------|
G|--7-x-x--|  |--7-7-7-7--9-9-9-9-10-10-10-10---|
D|--7-x-x--|X8|---------------------------------|
A|--5-x-x--|  |--5-5-5-5--7-7-7-7--8--8--8--8---|
E|---------|  |---------------------------------|-5-5-4-4-3-3-1--|

main riff
E|------------5-10-12-10----------|
B|----------6------------10-9-8---|
G|--------7-----------------------|
D|------7-------------------------|
A|--5-8---------------------------|
E|--------------------------------|

E|------------5-10-12-13-19-20b---|half step bend
B|----------6---------------------|
G|--------7-----------------------|
D|------7-------------------------|
A|--5-8---------------------------|
E|--------------------------------|

verse
listen to the song to get the strumming pattern
I would also like to point out that in the studio recording
there are some slides up to the chords
but this is based of a live

verse
  Dmin  Gmin  Dmin  Amaj
E|-5---|-3---|-5---|-5---|
B|-6---|-3---|-6---|-5---|
G|-7---|-3---|-7---|-6---|
D|-7---|-5---|-7---|-7---|
A|-5---|-5---|-5---|-7---|
E|-----|-----|-----|-----|-5-4-|

  Gmin  Fmaj  Gmin  Amaj
E|-3---|-1---|-3---|-5---|
B|-3---|-1---|-3---|-5---|
G|-3---|-2---|-3---|-6---|
D|-5---|-3---|-5---|-7---|
A|-5---|-3---|-5---|-7---|
E|-----|-----|-----|-----|

main riff again

Verse again

Chorus
again listen to the song for the strumming pattern

  Dmin  Gmin  Dmin  Amaj
E|-5---|-3---|-5---|-5---|
B|-6---|-3---|-6---|-5---|
G|-7---|-3---|-7---|-6---|
D|-7---|-5---|-7---|-7---|
A|-5---|-5---|-5---|-7---|
E|-----|-----|-----|-----|

  Dmin  Gmin  Gmin  Amaj
E|-5---|-3---|-3---|-5---|
B|-6---|-3---|-3---|-5---|
G|-7---|-3---|-3---|-6---|
D|-7---|-5---|-5---|-7---|
A|-5---|-5---|-5---|-7---|
E|-----|-----|-----|-----|

main riff again leading into solo

solo
E|---------------|  ---------------|-------------------------------------|
B|---------------|  ---------------|--15-15b----------|bend is a full step
G|--12--10-9-10--|  --12--14-------|----------14-----14-14b--12-12s14----|
D|---------------|X2---------------|-------------------------------------|
A|--10--8--7-8---|  --10--12-------|-------------------------------------|
E|---------------|  ---------------|-------------------------------------|

Breakdown?

 Gmin   Fmaj  Gmin  Amaj
E|-3---|-1---|-3---|-5---|
B|-3---|-1---|-3---|-5---|
G|-3---|-2---|-3---|-6---|
D|-5---|-3---|-5---|-7---|
A|-5---|-3---|-5---|-7---|
E|-----|-----|-----|-----|

this rest of the song is the same but played one half step higher
which is annoying to play but necessary for the sound
I'm not gonna write it out it out for the obvious reason though
asit would take a long time to do so. and I'm lazy.