Muddy Waters - Mississippi Delta Blues Text Guitar Tab

Learn the song with the online tablature player
MUDDY WATERS
                       MISSISSIPPI DELTA BLUES

intro
--------------------------------------------------------------------|
--15b-15b-15b-15b-15b-15b-15b-15b-15b-15b-15b-----------------------|
-----------------------------------------------15b-15-15b-15-12-----|
-----------------------------------------------15b-15-15b-15-12-----|
--------------------------------------------------------------------|
--------------------------------------------------------------------|

---------------------------------------------------------------------------|
--15b-15b-15b-15b-15b-15b-15b-15b-15b-15b-15b-15b--12b-15-12b-15-12--------|
--------------------------------------------------------------------12-12--|
---------------------------------------------------------------------------|
---------------------------------------------------------------------------|
---------------------------------------------------------------------------|

-------------------|
-------------------|
----12-11-10-------|
----10--9--8-------|
-------------------|
-------------------|

good song
peace