Mudhoney - Hard On For War Text Guitar Tab

Learn song with the online tabulature player
-------------------------------------------------------------------------------
HARD ON FOR WAR - Mudhoney
-------------------------------------------------------------------------------
Tabbed by: grungeaholic91
Email: kalenshumacher@yahoo.com

Tuning: standard

e|-3----1---1----------------------------------------------------------------|
B|--------3------3-1-3----1---1----------------------------------------------|
G|--------------------------3---3-0------------------------------------------|
D|----------------------------------3----------------------------------------|
A|---------------------------------------------------------------------------|
E|---------------------------------------------------------------------------|