Mudvayne - Negative One Text Guitar Tab

Learn the song with the online tablature player
Ok, i've seen quite a few tabs with some bits wrong.... so i'm gonna tab the whole thing the way i think
is...  Also, i haven't found a tab with a correct interlude, so i figured it out.

Verse
/////
|------------------------------------------------------------------|
|------------------------------------------------------------------|
|------------------------------------------------------------------|
|-3-3-3-3-3-3-3-3-3-3-3-3-3-3-/5-5-2-2-2-2-2-2-2-2-2-2-2-2-2-2-----|
|--------------------------------------------------------------0-0-|
|------------------------------------------------------------------|

Chorus
//////
|-----------------------|
|-----------------------|
|-----------------------|
|-----------------------|  Gotta play this quite fast
|-3-2-0-5-3--3-2-0-2-2--|
|-3-2-0-5-3--3-2-0-2-2--|

Bridge
//////
|------------------------|
|------------------------|
|------------------------|
|------------------------|
|-2-3-2-3-5-3-2-3-2-3-5-3|
|-2-3-2-3-5-3-2-3-2-3-5-3|

Bridge outro
////////////
|------------------------------|
|------------------------------|
|------------------------------|
|------------------------------|
|-2-3-2-3-5-3-2-3-2-3-2-3-XX-X-|
|-2-3-2-3-5-3-2-3-2-3-2-3-XX-X-|

Interlude
w/ effect)
/////////
|---------10------------------------------|----|
|--10--------10---10h11p10-8---10-8---8-7-|-7--|  I use a clean sound, with a fast flanger
|-----8-7-------8------------8------8-----|-7--|  and some echo and it sounds good.
|-----------------------------------------|----|
|-----------------------------------------|----|
|-----------------------------------------|----|
                                          End On
Outro
/////
|--------------------------------------------------|
|--------------------------------------------------|
|--------------------------------------------------|
|--------------------------------------------------|
|-3-2-0-5-3--3-2-0-0-XX-X--3-2-0-5-3--3-2-0-0-XXXX-|
|-3-2-0-5-3--3-2-0-0-XX-X--3-2-0-5-3--3-2-0-0-XXXX-|

|-----------------------------------------------------------------------|
|-----------------------------------------------------------------------|
|-----------------------------------------------------------------------|
|-----------------------------------------------------------------------|
|-3-2-0-5-3--3-2-0-0--XX-X--3-2-0-5-3--3-2-0-0-XX-X--3-2-0-5-3--3-2-0-0-|
|-3-2-0-5-3--3-2-0-0--XX-X--3-2-0-5-3--3-2-0-0-XX-X--3-2-0-5-3--3-2-0-0-|

Structure
/////////

Verse x5
Chorus x8
Verse x4
Chorus x12
Bridge x7
Bridge Outro x4
Interlude x8
Chorus x8
Outro x1

Thats the lot.... this is a wicked song.