Mudvayne - Small Silhouette Text Guitar Tab

Learn the song with the online tablature player
Pretty simple song, I'm almost 100% about this one...enjoy.

Intro
The strums is kept by the beat...strum back and forth.
X1
D----------------------------------------------------------------------------
A----------------------------------------------------------------------------
F-10-10-10-10-----------9-9-9-9-----------10-10----------12-9----------------
C-x--x--x--x---3-2-0-2--x-x-x-x--3-2-0-2--X--X--3-2-0-2--x--x--3-2-0-3-x-3-5-
D-8--8--8--8---3-2-0-2--7-7-7-7--3-2-0-2--8--8--3-2-0-2--10-7--3-2-0-1-x-1-3-
C--------------3-2-0-2-----------3-2-0-2--------3-2-0-2--------3-2-0---x-----
               . . . .           . . . .        . . . .        . . .

Chorus
X2
D--------------------------------------------|
A--------------------------------------------|
F--------------------------------------------|
C-7-7-10-3-3-2-0-2-7-7-10-3-2-0-2-3-x-3-5----|
D-5-5-8--1-3-2-0-2-5-5-8--3-2-0-2-1-x-1-3----|
C----------3-2-0-2--------3-2-0-2---x--------|
           . . . .        . . . .

Verse
the bass is what moves around alot, not the guitar)
X2
D-----------------------------------|
A-----------------------------------|
F-----------------------------------|
C--7-7-7-7-5-5-5-5-3-3-3-3-5-5-5-5--|
D--5-5-5-5-3-3-3-3-1-1-1-1-3-3-3-3--|
C-----------------------------------|
   . . . . . . . . . . . . . . . .

Chorus X2
Verse X2
Chorus X4
Intro X2

Bridge played over the Intro and 1st part of actual bridge.
D------------------------------------------------|
A------------------------------------------------|
F-----10-7-10-7-10-7-10-7-9-7-9-7-9-7-9----------|
C------------------------------------------------|
D------------------------------------------------|
C------------------------------------------------|

Bridge

D--------------------------------------------------------------|
A--------------------------------------------------------------|
F--------------------------------------------------------------|
C--7-7-7-7--3-2-0-2--5-5-5-5-3-2-0-2--7-7-7-7--3-2-0-2--5-5-5-5|
D--5-5-5-5--3-2-0-2--3-3-3-3-3-2-0-2--5-5-5-5--3-2-0-2--3-3-3-3|
C-----------3-2-0-2----------3-2-0-2-----------3-2-0-2---------|
            . . . .          . . . .        . . . .

Heavy Bridge (Be careful! There is an extra beat the 4th time played
it's hard to explain, but its where those x's are.)

X3
D------------------------------------------------------------------------|
A------------------------------------------------------------------------|
F-------8-8-------8-8-------8-8-----------8-8-------8-8-------8-8--------|
C-3-0-2-x-x-3-0-2-x-x-3-0-2-x-x-x-x-3-0-2-x-x-3-0-2-x-x-3-0-2-x-x-x-x----|
D-3-0-2-6-6-3-0-2-6-6-3-0-2-6-6-x-x-3-0-2-6-6-3-0-2-6-6-3-0-2-6-6-x-x----|
C-3-0-2-----3-0-2-----3-0-2-----x-x-3-0-2-----3-0-2-----3-0-2-----x-x----|
  . . .     . . .     . . .         . . .     . . .     . . .

Chorus X2.

This is a great song, have fun with playing it.

Late.