Mumford And Sons - Not With Haste Text Guitar Tab

Learn the song with the online tablature player
Mumford & Sons
Babel
Not With Haste

Intro
|--2--0--2/4---------4---------4---------4\2---------2p0----------------|
|---------------0---------0---------0-----------0-----------0-----------|
|-----------------------------------------------------------------------|
|--2--0--2/4--4---4--4--4---4--4--4---0--4\2--2---2--2p0--0---0---------|
|-----------------------------------------------------------------------|
|-----------------------------------------------------------------------|

|--0---------0---------5---------4---------2---------0---------0--------|
|-------0---------0---------0---------0---------0---------0---------0---|
|-----------------------------------------------------------------------|
|--0--0---0--0--0---0--5--5---5--4--4---4--2--2---2--0--0---0--0--0---0-|
|-----------------------------------------------------------------------|
|-----------------------------------------------------------------------|

|--0--------------------------------------------------------------------|
|-------0---------------------------------------------------------------|
|-----------------------------------------------------------------------|
|--0--0---0-------------------------------------------------------------|
|-----------------------------------------------------------------------|
|-----------------------------------------------------------------------|

Verse 1
|--2-----(0)-2/4---------4---------4---------4\2---------2p0------------|
|-------0-----------0---------0---------0-----------0-----------0-------|
|-----------------------------------------------------------------------|
|--2--2---0--2/4--4---4--4--4---4--4--4---0--4\2--2---2--2p0--0---0-----|
|-----------------------------------------------------------------------|
|-----------------------------------------------------------------------|

|--0---------0---------5---------4---------2---------0---------0--------|
|-------0---------0---------0---------0---------0---------0---------0---|
|-----------------------------------------------------------------------|
|--0--0---0--0--0---0--5--5---5--4--4---4--2--2---2--0--0---0--0--0---0-|
|-----------------------------------------------------------------------|
|-----------------------------------------------------------------------|

|--0--------------------------------------------------------------------|
|-------0---------------------------------------------------------------|
|-----------------------------------------------------------------------|
|--0--0---0-------------------------------------------------------------| 2x
|-----------------------------------------------------------------------|
|-----------------------------------------------------------------------|

"This aint no sham. I am what I am"
|-----------------------------------------------------------------------|
|--1---------0---------0---------0--------------------------------------|
|-------0---------0---------0---------0---------------------------------|
|-----------------------------------------------------------------------| 2x
|--2--2---2--0--0---0--0--0---0--0--0---0-------------------------------|
|-----------------------------------------------------------------------|

Intro 1x
Verse 2x

Chorus
|-----------------------------------------------------------------------|
|-----------------------------------------------------------------------|
|--5---------5---------0---------0--------------------------------------|
|-------0---------0---------0---------0---------------------------------| 3x
|-----------------------------------------------------------------------|
|--5--5---5--5--5---5--0--0---0--0--0---0-------------------------------|

|-----------------------------------------------------------------------|
|-----------------------------------------------------------------------|
|--7---------7---------7------------------------------------------------|
|-------0---------0-----------------------------------------------------|
|-----------------------------------------------------------------------|
|--7--7---7--7--7---7--7------------------------------------------------|

Verse
strummed)
|--2----0----2/4----4----2----0----5----4----2----0---------------------|
|--0----0----0-0----0----0----0----0----0----0----0---------------------|
|--0----0----0-0----0----0----0----0----0----0----0---------------------|
|--2----0----2/4----4----2----0----5----4----2----0---------------------| 3x
|--0----0----0-0----0----0----0----0----0----0----0---------------------|
|--0----0----0-0----0----0----0----0----0----0----0---------------------|

"This aint no sham. I am what I am...."
|--0----0---------------------------------------------------------------|
|--1----0---------------------------------------------------------------|
|--0----0---------------------------------------------------------------|
|--0----0---------------------------------------------------------------| 4x
|--2----0---------------------------------------------------------------|
|--0----0---------------------------------------------------------------|

Chorus
strummed)
|----0----0----0----0----0----0----0------------------------------------|
|----0----0----0----0----0----0----0------------------------------------|
|----5----0----5----0----5----0----7------------------------------------|
|----0----0----0----0----0----0----0------------------------------------| 2x
|----0----0----0----0----0----0----0------------------------------------|
|----5----0----5----0----5----0----7------------------------------------|

"Do not let my fickle flesh..."
|----0----0----0----0----0----0----0------------------------------------|
|----0----0----0----0----0----0----0------------------------------------|
|----8----0----8----0----5----7----8------------------------------------|
|----0----0----0----0----0----0----0------------------------------------|
|----0----0----0----0----0----0----0------------------------------------|
|----9----0----9----0----5----7----9------------------------------------|

Intro
strummed) 2x