Mumsdollar - Making Amends Text Guitar Tab

Learn song with the online tabulature player
Song: Making Amends
Artist: Mumsdollar
Album: Ruins (2008)
Tabbed By: Krimson Eagl

Tuning: Standard (EADGBE)

In this tab ~ means let the note ring.

INTRO:

e|-9-----9----9------9-----9-----9-----|-----------------------9-|
B|---6-7---6-7---6-7---6-7---6-7---6-7-|-9-6-7-9-6-7-9-6-7-9-6---|
G|-------------------------------------|-------------------------|
D|-------------------------------------|-------------------------|
A|-------------------------------------|-------------------------|
E|-------------------------------------|-------------------------|

e|-6-----9-6-9-6-----9-6-9-|-------------------------|
B|---6-7---------6-7-------|-9-6-7-9-6-7-9-6-7-9-6-7-|
G|-------------------------|-------------------------|
D|-------------------------|-------------------------|
A|-------------------------|-------------------------|
E|-------------------------|-------------------------|

e|-------2-----1-----2-----|-2-----4-----2-----4-------|
B|-6-2-4---2-4---2-4---2-4-|---2-4---2-4---2-4---2-4~--|
G|-------------------------|---------------------------|
D|-------------------------|---------------------------|
A|-------------------------|---------------------------|
E|-------------------------|---------------------------|

Lyrics:                                       It's time, it doesn't

e|------------18~------14~------13~----------------9~-----------------11~-|
B|------------------------------------------------------------------------|
G|------------------------------------------------------------------------|
D|------------------------------------------------------------------------|
A|------------------------------------------------------------------------|
E|------------------------------------------------------------------------|

Lyrics:       make any sense at all, that you and me wouldn't stop to talk.


Not too sure about the last two sections before the lyrics but it sounds pretty close.