Mumsdollar - Rescue Me Text Guitar Tab

Learn song with the online tabulature player
This is my first tab so please be easy on my XD

               Intro
E|-----------------------------------|
B|-----------------------------------|
G|-----------------------------------|
D|-5--5--6--6--6-6----5--5--6--6--8-8|
A|--6--6--6--6--6------6--6--6--6--6-|
D|6--6--6--6--6------6--6--6--6--6---|


                Bridge or chorus
E|---------------------|
B|---------------------|
G|---------------------|
D|6-6-6--1-1-1--6-6-6--|
A|6-6-6--1-1-1--6-6-6--|
D|6-6-6--1-1-1--6-6-6--|
Strumming is wrong but yeah you'll get it