Munchausen By Proxy - Keystar Text Guitar Tab

Learn the song with the online tablature player
                                     KEYSTAR
                       As recorded by Munchausen by Proxy
                    (From the 2008 Album YES MAN SOUNDTRACK)

Words by Zooey Deschanel

Gtr I (E A D G B E) - 'Synth 1'
Gtr II (E A D G B E) - 'Synth 2'

Are you a star of the keytar? Now is your chance to find out.

    Q=150                                                1.,2.,3.,4.,5.,6.
   4/4
    Gtr I
    E E E E E E E E   E E E E E E E E   E E E E E E E E   E E E E E E E E   7x
||------------------|-----------------|-----------------|-------------------||
||o-----------------|-----------------|-----------------|------------------o||
||------------------|-----------------|-----------------|-------------------||
||------------------|-----------5-----|-----------5-----|-------------------||
||o---5---5---5---5-|---5---5-------3-|---3---3-------0-|---0---0---3---5--o||
||------------------|-----------------|-----------------|-------------------||

  7.
  E E E E E E Q       E E E E E E E E   E  E E  E E  E E  E
|-----------------||------------------|---------------------|
|-----------------||o-----------------|---------------------|
|-----------------||------------------|---------------------|
|-----------------||----7---7---7---7-|---10---10---10---10-|
|---0---0---3-----||o-5---5---5---5---|-8----8----8----8----|
|-----------------||------------------|---------------------|

   E  E  E  E  E  E  E  E    E  E  E  E  E  E  E  E
|-------------------------|--------------------------||
|-------------------------|-------------------------o||
|-------------------------|--------------------------||
|----12----12----12----12-|----12----12----12----12--||
|-10----10----10----10----|-10----10----10----10----o||
|-------------------------|--------------------------||

  W          +H     E E E E   Wx2
|----------|----------------|--------|
|----------|----------------|--------|
|----------|----------------|--------|
|----------|----------------|--------|
|-5--------|-(5)------5---3-|--------|
|----------|----------------|--------|

  W          +H     E E E E   Wx2
|----------|----------------|--------|
|----------|----------------|--------|
|----------|----------------|--------|
|----------|----------------|--------|
|-5--------|-(5)------5---3-|--------|
|----------|----------------|--------|

    E E E E E E E E   E E E E E E E E   E E E E E E E E   E E E E E E E E
||------------------|-----------------|-----------------|-------------------||
||o-----------------|-----------------|-----------------|------------------o||
||------------------|-----------------|-----------------|-------------------||
||------------------|-----------5-----|-----------5-----|-------------------||
||o---5---5---5---5-|---5---5-------3-|---3---3-------0-|---0---0---3---5--o||
||------------------|-----------------|-----------------|-------------------||

  Gtr II
   Q   Q   Q   Q     Q   E  Q   Q.      Q   Q   Q   Q     Q   E  Q   E  E  E
|---------13--15--|--------13--15----|-17--15--13--15--|-13--15-13-----------|
|-13--15----------|-13--15-----------|-----------------|------------15-13-15-|
|-----------------|------------------|-----------------|---------------------|
|-----------------|------------------|-----------------|---------------------|
|-----------------|------------------|-----------------|---------------------|
|-----------------|------------------|-----------------|---------------------|

  Gtr I
   W                 W                  W                 W
|-----------------|------------------|-----------------|------------------|
|-----------------|------------------|-----------------|------------------|
|-----------------|------------------|-----------------|------------------|
|-----------------|------------------|-----------------|------------------|
|-----------------|------------------|-----------------|------------------|
|-----------------|------------------|-----------------|------------------|
|
| Gtr II
|  Q   Q   Q   Q     Q   E  Q   Q.      Q   Q   Q   Q     Q   E  Q   Q.
|---------13--15--|--------13--15----|-17--15--13--15--|-13--15-13--------|
|-13--15----------|-13--15-----------|-----------------|------------15----|
|-----------------|------------------|-----------------|------------------|
|-----------------|------------------|-----------------|------------------|
|-----------------|------------------|-----------------|------------------|
|-----------------|------------------|-----------------|------------------|

   4/4
    Gtr I
      E  E E E E E E E   E E E E E E E E
||---------------------|-----------------|
||o--------------------|-----------------|
||---------------------|-----------------|
||---------------------|-----------5-----|
||o------5---5---5---5-|---5---5-------3-|
||---------------------|-----------------|
|
|   Gtr II
|    +H        H         W
||---------------------|-----------------|
||o-(15)---------------|-----------------|
||---------------------|-----------------|
||---------------------|-----------------|
||o--------------------|-----------------|
||---------------------|-----------------|

                   1.,2.,3.,4.,5.
  E E E E E E E E   E E E E E E E E   6x
|-----------------|-------------------||
|-----------------|------------------o||
|-----------------|-------------------||
|-----------5-----|-------------------||
|---3---3-------0-|---0---0---3---5--o||
|-----------------|-------------------||
|
| W                 W                 6x
|-----------------|-------------------||
|-----------------|------------------o||
|-----------------|-------------------||
|-----------------|-------------------||
|-----------------|------------------o||
|-----------------|-------------------||

  6.
  E E E E E E Q       E E E E E E E E   E  E E  E E  E E  E
|-----------------||------------------|---------------------|
|-----------------||o-----------------|---------------------|
|-----------------||------------------|---------------------|
|-----------------||----7---7---7---7-|---10---10---10---10-|
|---0---0---3-----||o-5---5---5---5---|-8----8----8----8----|
|-----------------||------------------|---------------------|

   E  E  E  E  E  E  E  E    E  E  E  E  E  E  E  E
|-------------------------|--------------------------||
|-------------------------|-------------------------o||
|-------------------------|--------------------------||
|----12----12----12----12-|----12----12----12----12--||
|-10----10----10----10----|-10----10----10----10----o||
|-------------------------|--------------------------||

  W          +H     E E E E   Wx2
|----------|----------------|--------|
|----------|----------------|--------|
|----------|----------------|--------|
|----------|----------------|--------|
|-5--------|-(5)------5---3-|--------|
|----------|----------------|--------|

  W          +H     E E E E   Wx2
|----------|----------------|--------|
|----------|----------------|--------|
|----------|----------------|--------|
|----------|----------------|--------|
|-5--------|-(5)------5---3-|--------|
|----------|----------------|--------|

    E E E E E E E E   E E E E E E E E   E E E E E E E E   E E E E E E E E
||------------------|-----------------|-----------------|-------------------||
||o-----------------|-----------------|-----------------|------------------o||
||------------------|-----------------|-----------------|-------------------||
||------------------|-----------5-----|-----------5-----|-------------------||
||o---5---5---5---5-|---5---5-------3-|---3---3-------0-|---0---0---3---5--o||
||------------------|-----------------|-----------------|-------------------||

  Gtr II
   E  E  E  E  E  E  E  E    E  E  E  E  E  Q   E
|-17-15-17-13-17-12-17----|-17-15-17-13-17-12-----|
|----------------------15-|--------------------15-|
|-------------------------|-----------------------|
|-------------------------|-----------------------|
|-------------------------|-----------------------|
|-------------------------|-----------------------|

   E  E  E  E  E  E  E  E    E  E  E  E  E  Q   E
|-17-15-17-13-17-12-17----|-17-15-17-13-17-12-----|
|----------------------15-|--------------------15-|
|-------------------------|-----------------------|
|-------------------------|-----------------------|
|-------------------------|-----------------------|
|-------------------------|-----------------------|

   E  E  E  E  E  E  E  E    E  E  E  E  E  Q   E
|-17-15-17-13-17-12-17----|-17-15-17-13-17-12-----|
|----------------------15-|--------------------15-|
|-------------------------|-----------------------|
|-------------------------|-----------------------|
|-------------------------|-----------------------|
|-------------------------|-----------------------|

                                          |--3---|
   E  E  E  E  E  E  E  E    E  E  E  E  +Q   Q  Q     +H.      Q
|-17-15-17-13-17-12-17----|-17-15-17-13-(13)-15-----|----------------*|
|----------------------15-|---------------------15--|-(15)-----------*|
|-------------------------|-------------------------|----------------*|
|-------------------------|-------------------------|----------------*|
|-------------------------|-------------------------|----------------*|
|-------------------------|-------------------------|----------------*|

Duration Legend

W - whole; H - half; Q - quarter; E - 8th; S - 16th; T - 32nd; X - 64th; a - acciaccatura
+ - note tied to previous; . - note dotted; .. - note double dotted
Uncapitalized letters represent notes that are staccato (1/2 duration)
Irregular groupings are notated above the duration line
Duration letters will always appear directly above the note/fret number it represents the
duration for.  Duration letters with no fret number below them represent rests.  Multi-
bar rests are notated in the form Wxn, where n is the number of bars to rest for.  Low
melody durations appear below the staff

 h   - hammer-on
 p   - pull-off
 b   - bend
 pb  - pre-bend
 r   - bend release (if no number after the r, then release immediately)
 /\  - slide into or out of (from/to "nowhere")
 s   - legato slide
 S   - shift slide


   - natural harmonic
[n]  - artificial harmonic
n(n) - tapped harmonic
 ~   - vibrato
 tr  - trill
 T   - tap
 TP  - trem. picking
 PM  - palm muting
\n/  - tremolo bar dip; n = amount to dip
 \n  - tremolo bar down
 n/  - tremolo bar up
/n\  - tremolo bar inverted dip
 =   - hold bend; also acts as connecting device for hammers/pulls
 <>  - volume swell (louder/softer)
 x   - on rhythm slash represents muted slash
 o   - on rhythm slash represents single note slash

Misc Legend

 |  - bar
||  - double bar
||o - repeat start
o|| - repeat end
*|  - double bar (ending)
 :  - bar (freetime)
 $  - Segno
 &  - Coda
Tempo markers -
 
   = BPM(8/16=s8/s16), where s8 = swing 8ths, s16 = swing 16ths