Murder City Devils - Dear Hearts Text Guitar Tab

Learn the song with the online tablature player
Artist: The Murder City Devils
Song: Dear Hearts
Album: Broken Bottles Empty Hearts

Really cool song, really easy and fun to play.

Intro

e|--------------------|---------------------|
B|--------------------|---------------------|        Play 3x
G|------------------------------------------|
D|--2-2--2-2--2-2-2--5-5-5--3-3-3-----------|
A|--0-0--3-0--0-3-0--5-5-5--3-3-3-----------|
E|-------------------3-3-3--1-1-1-----------|

Right After 3rd Time
          Em
e|---------------------|--------------------|--------------------|
B|---------------------|--------------------|--------------------|
G|-----0---------------|--------------------|--------------------|
D|-----2---------------|----2h3p2-----------|--------------------|
A|-----2---------------|----------3-2-------|--------------------|
E|---------------------|--------------------|--------------------|

Repeat Intro Riff a few times

Guitar 2

e|-------------------------------------------------------------|
B|-------------------------------------------------------------|
G|---7-12-10-------------7-10-12b^-----------------------------|
D|-------------------------------------------------------------|
A|-------------------------------------------------------------|
E|-------------------------------------------------------------|

Chorus Riff

e|---------------------------------------------------------------|
B|---------------------------------------------------------------|
G|---------------------------------------------------------------|
D|---7-7-7-7---10-10-10-10----5-5-5-5---7-7-7-7----7-7-7-7-------|
A|---7-7-7-7---10-10-10-10----5-5-5-5---7-7-7-7----7-7-7-7-------|
E|---5-5-5-5---8--8--8--8-----3-3-3-3---5-5-5-5----5-5-5-5-------|

e|---------------------------------------------------------------|
B|---------------------------------------------------------------|
G|---------------------------------------------------------------|
D|--10-10-10---14--14-----14-----14------------------------------|
A|--10-10-10---14--14-----14-----14------------------------------|
E|--8--8--8----12--12-----12-----12------------------------------|