Murderdolls - Chapel Of Blood Text Guitar Tab

Learn the song with the online tablature player
Murderdolls - Chapel Of Blood
From the new album "Women and Children Last"

. = palm mute
~ = let chord/note ring
* = explained next to or under measure
\ = slide down
\\\ = pickslide
_____________________________________________________________________________

Intro
Part 1: Start|0:00 - 0:26

Guitar 1 - Roman Surman

D|------------------------------------|
A|------------------------------------|
F|------------------------------------|
C|0~------------------------6-6-------|
G|0~--rings-13-beats--------6-6--6-5-3| <-- 3 times
C|0~------------------------6-6--6-5-3|
                                 . . .

~~~~~~~~~~~~~~~~~~~~~~~~~~~~~~~~~~~~~~~~~~~~~~~~~~~~~~~~~~~~~~~~~~~~~~~~~~~~~

Guitar 2 - Fuckin' Joey Jordison (Bitches!!!)

D|------------------------------------|
A|------------------------------------|
F|------------------*-----------------|
C|0~------------\\\\\\\\\\--6-6-------|
G|0~--13-beats--\\\\\\\\\\--6-6--6-5-3| <-- 2 times
C|0~------------\\\\\\\\\\--6-6--6-5-3|
          *pickslide 2nd time    . . .

D|-------------------------------------------------------|
A|-------------------------------------------------------|
F|-------------------------------------------------------|
C|---------------------------------------------6-6-------|
G|---------------------------------------------6-6--6-5-3| <-- 3rd time
C|0~-0-1~-1-3-1-0~-0-1~-1-3-1-0~-0-1~-1-3-1-0~-6-6--6-5-3|
                                                    . . .

D|------------------------------------------------------------|
A|------------------------------------------------------------|
F|------------------------------------------------------------|
C|------------------------------------------------6-6--------0|
G|------------------------------0-0-0-0-0-0-0-0-0-6-6--6-5-3-0|
C|0~-0-1~-1-3-1-0~-0-1~-1-3-1-0-0-0-0-0-0-0-0-0-0-6-6--6-5-3-0|
                                . . . . . . . . .      . . .
_____________________________________________________________________________

Intro
Part 2: 0:26 - 0:39

Guitar 1 & Guitar 2

D|-------------------------------------------------------|
A|-------------------------------------------------------|
F|-------------------------------------------------------|
C|-----------------------------------------------------7\|
G|0-1--1-3-1-0--0-1--1-3-1-0--0-1--1-3-1-0--0-1--1-3-1-5\|
C|0-1--1-3-1-0--0-1--1-3-1-0--0-1--1-3-1-0--0-1--1-3-1---|
  .    . . .    .    . . .    .    . . .    .    . . .

D|----------------------------------------------------|
A|----------------------------------------------------|
F|----------------------------------------------------|
C|----------------------------------------------------|
G|0-1--1-3-1-0--0-1--1-3-1-0--0-1--1-3-1-0--0-1--1-3-1|
C|0-1--1-3-1-0--0-1--1-3-1-0--0-1--1-3-1-0--0-1--1-3-1|
  .    . . .    .    . . .    .    . . .    .    . . .
____________________________________________________________________________

Verse 1
0:39 - 1:03

This can be played two ways I believe. One with both guitars playing the same
thing, or one going along
with the bass. I prefer this one, and since I'm not tabbing out bass,
I wont put the other one unless someone requests it.

Guitar 1 & Guitar 2

D|------------------------------------------------------------|
A|------------------------------------------------------------|
F|7~-7-7-7-7-7-7-5~-7-7-7-7-7-7-10~-7-7-7-7-7-7-5~-8-7-7-7-7-7|
C|------------------------------------------------------------| <-- 3 times
G|5~-5-5-5-5-5-5-3~-5-5-5-5-5-5--8~-5-5-5-5-5-5-3~-6-5-5-5-5-5|
C|------------------------------------------------------------|

D|-------------------------------------------------------------|
A|-------------------------------------------------------------|
F|7~-7-7-7-7-7-7-5~-7-7-7-7-7-7-10~-7-7-7-7-7-7-7--------------|
C|-------------------------------------------------6-6--------0| <-- 4th time
G|5~-5-5-5-5-5-5-3~-5-5-5-5-5-5--8~-5-5-5-5-5-5-5--6-6--6-5-3-0|
C|-------------------------------------------------6-6--6-5-3-0|
                                                        . . .
_____________________________________________________________________________

Chorus
1:03 - 1:15

Guitar 1 & Guitar 2

D|----------------------------------------------------|
A|----------------------------------------------------|
F|----------------------------------------------------|
C|------------------------------------------6-6-------| <-- 2 times
G|0-1--1-3-1-0--0-1--1-3-1-0--0-1--1-3-1-0--6-6--6-5-3|
C|0-1--1-3-1-0--0-1--1-3-1-0--0-1--1-3-1-0--6-6--6-5-3|
  .    . . .    .    . . .    .    . . .       *(. . .) <-- only mute 2nd
                                                            time
_____________________________________________________________________________

Verse 2
1:15 - 1:40

Guitar 1 & Guitar 2

D|------------------------------------------------------------|
A|------------------------------------------------------------|
F|7~-7-7-7-7-7-7-5~-7-7-7-7-7-7-10~-7-7-7-7-7-7-5~-8-7-7-7-7-7|
C|------------------------------------------------------------| <-- 3 times
G|5~-5-5-5-5-5-5-3~-5-5-5-5-5-5--8~-5-5-5-5-5-5-3~-6-5-5-5-5-5|
C|------------------------------------------------------------|

D|-------------------------------------------------------------|
A|-------------------------------------------------------------|
F|7~-7-7-7-7-7-7-5~-7-7-7-7-7-7-10~-7-7-7-7-7-7-7--------------|
C|-------------------------------------------------6-6--------0| <-- 4th time
G|5~-5-5-5-5-5-5-3~-5-5-5-5-5-5--8~-5-5-5-5-5-5-5--6-6--6-5-3-0|
C|-------------------------------------------------6-6--6-5-3-0|
                                                        . . .
_____________________________________________________________________________

Chorus 2 1:40 - 2:05

Guitar 1 & Guitar 2

D|----------------------------------------------------|
A|----------------------------------------------------|
F|----------------------------------------------------|
C|------------------------------------------6-6-------| <-- 2 times
G|0-1--1-3-1-0--0-1--1-3-1-0--0-1--1-3-1-0--6-6--6-5-3|
C|0-1--1-3-1-0--0-1--1-3-1-0--0-1--1-3-1-0--6-6--6-5-3|
  .    . . .    .    . . .    .    . . .       *(. . .) <-- only mute 2nd
                                                            time

D|------------------------------------------------------------|
A|------------------------------------------------------------|
F|------------------------------------------------------------|
C|0~-0-1~-1-3-1-0~-0-1~-1-3-1-0~-0-1~-1-3-1-0~-6-6-6-6-5-3-[0]|<-- 2 times
G|0~-0-1~-1-3-1-0~-0-1~-1-3-1-0~-0-1~-1-3-1-0~-6-6-6-6-5-3-[0]|
C|0~-0-1~-1-3-1-0~-0-1~-1-3-1-0~-0-1~-1-3-1-0~-6-6-6-6-5-3-[0]|<--[]only 2nd
                                                                  time
_____________________________________________________________________________

Breakdown/Solo Rhythm: 2:05 - 2:30

Sadly, I cannot figure out his solo since I am A) a rhythm guitarist, and B) it
has tons of what that
I can't translate. So I apologize for that, but even without the solo, the rhythm is kickass ^.^
If someone happens to translate one in the future I would be glad to add it =D

Guitar 2

D|--------------------------------|
A|--------------------------------|
F|--------------------------------|
C|--------------------------------| <-- 3 times
G|0-0-0-0-0-0-0-0-0-0-0-0-0-666666|
C|0-0-0-0-0-0-0-0-0-0-0-0-0-666666|
  . . . . . . . . . . . . . ......

D|--------------------------------|
A|--------------------------------|
F|--------------------------------|
C|--------------------------------|
G|0-0-0-0-0-0-0-0-0-0-0-6666666666| <-- 4th time
C|0-0-0-0-0-0-0-0-0-0-0-6666666666|
  . . . . . . . . . . . ..........

Play all of the above once-

D|--------------------------------|
A|--------------------------------|
F|--------------------------------|
C|--------------------------------| <-- 3 times
G|0-0-0-0-0-0-0-0-0-0-0-0-0-666666|
C|0-0-0-0-0-0-0-0-0-0-0-0-0-666666|
  . . . . . . . . . . . . . ......

D|-----------------------------|
A|-----------------------------|
F|-----------------------------|
C|-----------------------------|
G|0-0-0-0-0-0-0-0-0-0-0-0-0-0-0| <-- 4th time
C|0-0-0-0-0-0-0-0-0-0-0-0-0-0-0|
  . . . . . . . . . . . . . . .
_____________________________________________________________________________

Post-Solo Rhythm: 2:30 - 2:43

Okay, so a 3rd guitar is dubbed in here, since the lead is doing whammy bar-sounding shit,
but I'm gonna tab it out minus the after solo whammy-ing lol.

Guitar 1

D|-------------------------------------------------------------------------|
A|-------------------------------------------------------------------------|
F|-------------------------------------------------------------------------|
C|0~-------------------------0~--------------------------------6-6--------0|
G|0~--rings-13-beats---------0~rings-8-beats-0-0-0-0-0-0-0-0-0-6-6--6-5-3-0|
C|0~-------------------------0~--------------0-0-0-0-0-0-0-0-0-6-6--6-5-3-0|
                                              . . . . . . . . .      . . .

~~~~~~~~~~~~~~~~~~~~~~~~~~~~~~~~~~~~~~~~~~~~~~~~~~~~~~~~~~~~~~~~~~~~~~~~~~~~~

Guitar 2

D|-------------------------------------------------------|
A|-------------------------------------------------------|
F|-------------------------------------------------------|
C|---------------------------------------------6-6-------|
G|---------------------------------------------6-6--6-5-3|
C|0~-0-1~-1-3-1-0~-0-1~-1-3-1-0~-0-1~-1-3-1-0~-6-6--6-5-3|
                                                    . . .

D|-------------------------------------------------------------|
A|-------------------------------------------------------------|
F|-------------------------------------------------------------|
C|-------------------------------------------------6-6--------0|
G|-------------------------------0-0-0-0-0-0-0-0-0-6-6--6-5-3-0|
C|0~-0-1~-1-3-1-0~-0-1~-1-3-1-0~-0-0-0-0-0-0-0-0-0-6-6--6-5-3-0|
                                 . . . . . . . . .      . . .
_____________________________________________________________________________

Chorus 3/Outro: 2:43 - 3:07|End

Guitar 1 & Guitar 2

D|----------------------------------------------------|
A|----------------------------------------------------|
F|----------------------------------------------------|
C|------------------------------------------6-6-------| <-- 2 times
G|0-1--1-3-1-0--0-1--1-3-1-0--0-1--1-3-1-0--6-6--6-5-3|
C|0-1--1-3-1-0--0-1--1-3-1-0--0-1--1-3-1-0--6-6--6-5-3|
  .    . . .    .    . . .    .    . . .       *(. . .) <-- only mute 2nd
                                                                     time

D|--------------------------------------------------------------|
A|--------------------------------------------------------------|
F|--------------------------------------------------------------|
C|0~-0-1~-1-3-1-0~-0-1~-1-3-1-0~-0-1~-1-3-1-0~-6-6-6-6-5-3-0~---|<-- 2 times
G|0~-0-1~-1-3-1-0~-0-1~-1-3-1-0~-0-1~-1-3-1-0~-6-6-6-6-5-3-0~---|
C|0~-0-1~-1-3-1-0~-0-1~-1-3-1-0~-0-1~-1-3-1-0~-6-6-6-6-5-3-0~---|