Murderdolls - Drug Me To Hell Text Guitar Tab

Learn the song with the online tablature player
                             DRUG ME TO HELL - Murderdolls

guitar 1 - Joey Jordison - rhythm
guitar 2 - Wednesday 13 - rhythm
guitar 3 - Roman Surman - lead - (This guitar is not very loud in the song.)
guitar 4 - Mick Mars - solo

intro
d|-----------------------------------|
A|-----------------------------------|
F|-----------------------------------|
C|-5-5-5-5-5-5-5-5-5-5-5-3-5-3-5-0-0-|   <--- guitars 1 & 2
G|-5-5-5-5-5-5-5-5-5-5-5-3-5-3-5-0-0-|
C|-5-5-5-5-5-5-5-5-5-5-5-3-5-3-5-0-0-|
-| x x x x x x x x x             x x |
d|-----------------------------------|
A|-----------------------------------|
F|-121212121212121212121210121012----|
C|-------------------------------1212|   <--- guitar 3
G|-----------------------------------|
C|-----------------------------------|

main riff:
d|---------------------------------------------------------------|
A|---------------------------------------------------------------|
F|---------------------------------------------------------------|< guitars
C|-0-3-0-3-0-0-0-3-0-3-0-0-0-0-0-0-0-3-0-3-0-0-0-5---5-7---7-7-7-|  1 & 2
G|-0-3-0-3-0-0-0-3-0-3-0-0-0-0-0-0-0-3-0-3-0-0-0-3-0-3-5---5-5-5-|
C|-0-3-0-3-0-0-0-3-0-3-0-0-0-0-0-0-0-3-0-3-0-0-0-----------------|
-| x         x x         x x x x x x         x x                 |
d|---------------------------------------------------------------|
A|-----------------------------------------------13-13/15--------|
F|---10--10------10--10--------------10--10----------------------|