Murderdolls - Evil Is Good Text Guitar Tab

Learn the song with the online tablature player
This is only the rythm as I did not feel like tabbing out all the lead stuff, which is
the best because I'm not great at tabbing solos. It would be appreciated if someone else
do it so I don't.

Intro
let it ring the last time)(use either light distortion or pick lightly)
------------------------------------------|
------------------------------------------|
------------------------------------------|
------------------------------------------|
------------------------------------------|
-7-8--7-8-7-5-2---7-8--7-8-7-5-7--8-7-5-2-|

Verse 1
play the intro and play the last line as:
------------------------------------------|
------------------------------------------|
------------------------------------------|
---------------------------------10-9-7-4-|
---------------------------------10-9-7-4-|
-7-8--7-8-7-5-2---7-8--7-8-7-5-7--8-7-5-2-|

Verse 2
same as verse with powercords, make sure to let it ring last time)
------------------------------------------|
------------------------------------------|
------------------------------------------|
-910--910-9-7-4---910--910-9-7-9-10-9-5-4-|
-910--910-9-7-4---910--910-9-7-9-10-9-5-4-|
-7-8--7-8-7-5-2---7-8--7-8-7-5-7--8-7-5-2-|

-play verse 1
Chorus
--------------------------------------------|
--------------------------------------------|
--------------------------------------------|
-99999999-77777777--910--910-9-7-9-10-9-7-4-|
-99999999-77777777--910--910-9-7-9-10-9-7-4-|
-77777777-55555555--7-8--7-8-7-5-7--8-7-5-2-|

--------------------------------|
--------------------------------|
--------------------------------|
-99999999-77777777-99999999-777-|
-99999999-77777777-99999999-777-|
-77777777-55555555-77777777-555-|
-play verse 2
-play verse 1
-play chorus
-chorus 2 all the way to the end