Muse - Action Faust Text Guitar Tab

Learn the song with the online tablature player
Band - Muse
Song - Action Faust

e|--------------------------------------------------|
B|--------------------------------------------------|
G|---------------7-----------------7----------------|
D|--------------------------------------------------| X4
A|-8-9-8-9-8-9--9-8-9-8-9-8-9-9---------------------|
E|--------------------------------------------------|

e|--------------------------------------------------|
B|--------------------------------------------------|
G|--------------------------------------------------|
D|--------------------------------------------------|
A|-5-5-5-5-5-5-5-5-5-5-5-5-7-7-7-7-9-9-9-9-9-9-9-9--|
E|--------------------------------------------------|

e|--------------------------------------------------|
B|--------------------------------------------------|
G|--------------------------------------------------|
D|--------------------------------------------------|
A|10-10-10-10-12-12-12-12-14-14-14-14-14-14-14-14---|
E|--------------------------------------------------|

e|--------------------------------------------------|
B|--------------------------------------------------|
G|--------------------------------------------------|
D|--------------------------------------------------|
A|-16-14-16-14-16-14-16-14-16-16--------------------|
E|--------------------------------------------------|