Muse - Close Encounters Text Guitar Tab

Learn the song with the online tablature player
e|-15--17--13--------8--|
B|----------------6-----|
G|----------------------|
D|----------------------|
A|----------------------|
E|----------------------|

e|-15--17--13--------8--|
B|----------------6-----|
G|----------------------|
D|----------------------|
A|----------------------|
E|----------------------|

e|-15--17--13--------8--|
B|----------------6-----|
G|----------------------|
D|----------------------|
A|----------------------|
E|----------------------|