Muse - Drum And Bass Text Guitar Tab

Learn the song with the online tablature player
G|-------------------------------------------------|
D|-------------------------------------------------|
A|-------------------------------------------------|
D|--10-12-10-12-10-0-10-12-13-12-15-13-15-18-15-13-|

G|-------------------------------------------------|
D|-------------------------------------------------|
A|-------------------------------------------------|
D|--10-12-10-12-10-0-10-12-13-12-15-13-15-18-15-13-|

G|-------------------------------------------------|
D|-------------------------------------------------|
A|-------------------------------------------------|
D|--10-12-10-12-10-0-10-12-13-12-15-13-15-18-15-13-|

G|----------------------------------------------------------------------------|
D|----------------------------------------------------------------------------|
A|----------------------------------------------------------------------------|
D|--10-12-10-12-0-3-5-6-5-0-3-0-3-5-3-0---10-12-10-12-0-3-5-6-5-0-3-0-3-5-3-0-|

G|----------------------------------------------------------------------------|
D|----------------------------------------------------------------------------|
A|----------------------------------------------------------------------------|
D|--10-12-10-12-0-3-5-6-5-0-3-0-3-5-3-0---10-12-10-12-0-3-5-6-5-0-3-0-3-5-3-0-|

G|-------------------------------------------------|
D|-------------------------------------------------|
A|-------------------------------------------------|
D|--10-12-10-12-10-0-10-12-13-12-15-13-15-18-15-13-|

G|-------------------------------------------------|
D|-------------------------------------------------|
A|-------------------------------------------------|
D|--10-12-10-12-10-0-10-12-13-12-15-13-15-18-15-13-|

G|-------------------------------------------------|
D|-------------------------------------------------|
A|-------------------------------------------------|
D|--10-12-10-12-10-0-10-12-13-12-15-13-15-18-15-13-|

G|-------------------------------------------------|
D|-------------------------------------------------|
A|-------------------------------------------------|
D|--10-12-10-12-10-0-10-12-13-12-15-13-15-18-15-13-|

G|----------------------------------------------------------------------------|
D|----------------------------------------------------------------------------|
A|----------------------------------------------------------------------------|
D|--10-12-10-12-0-3-5-6-5-0-3-0-3-5-3-0---10-12-10-12-0-3-5-6-5-0-3-0-3-5-3-0-|

G|----------------------------------------------------------------------------|
D|----------------------------------------------------------------------------|
A|----------------------------------------------------------------------------|
D|--10-12-10-12-0-3-5-6-5-0-3-0-3-5-3-0---10-12-10-12-0-3-5-6-5-0-3-0-3-5-3-0-|