Mushroomhead - Our Own Way Text Guitar Tab

Learn the song with the online tablature player
Key: L = Let Ring
     . = Palm Mute
     \ = Slide Down
     / = Slide up

Intro
x2
[-----------------------------------]
[-----------------------------------]
[-----------------------------------]
[-----------------------------------]
[-----------7-----6-----2-----2/4---]x2
[-8-10-0-10---0-0---0-0---0-0-----0-]
[-----------------------------------]

[---------------------------------]
[---------------------------------]
[---------------------------------]
[---------------------------------]
[---------------------------------]x2
[---------7-----6-----2-----2/4---]
[-7-9-0-9---0-0---0-0---0-0-----0-]

Verse
[0:28]
[---------------------------]
[---------------------------]
[---------------------------]
[---------------------------]
[-4L-----4L-----11L-----11L-]x2
[-4L-----4L-----11L-----11L-]
[-2L-----2L-----9-L-----9-L-]

Chorus
[0:57] x2
[-----------------------------------]
[-----------------------------------]
[-----------------------------------]
[-----------------------------------]
[-----------7-----6-----2-----2/4---]x2
[-8-10-0-10---0-0---0-0---0-0-----0-]
[-----------------------------------]

[---------------------------------]
[---------------------------------]
[---------------------------------]
[---------------------------------]
[---------------------------------]x2
[---------7-----6-----2-----2/4---]
[-7-9-0-9---0-0---0-0---0-0-----0-]

Verse
[1:26]
[---------------------------]
[---------------------------]
[---------------------------]
[---------------------------]
[-4L-----4L-----11L-----11L-]x2
[-4L-----4L-----11L-----11L-]
[-2L-----2L-----9-L-----9-L-]

Bridge
[1:54]
[-------------------------------------------------------------------------|
[-------------------------------------------------------------------------|
[-------------------------------------------------------------------------|
[-------------------------------------------------------------------------|
[---------------------------------------11-11-11---11-11---11-11---11-11--|
[---------------------------------------11-11-11---11-11---11-11---11-11--|
[-15\\-22222222222222222222222222222222-9--9—-9----9--9----9--9----9--9---|
       ................................

----------------------------------]
----------------------------------]
----------------------------------]
----------------------------------]
-11-11-11---11-11---11-11---11-11-]x1
-11-11-11---11-11---11-11---11-11-]
-9--9—-9----9--9----9--9----9--9--]

[------------------------------------------------------------------|
[------------------------------------------------------------------|
[------------------------------------------------------------------|
[------------------------------------------------------------------|
[---------------------------------11-11-11---11-11---11-11---11-11-|
[---------------------------------11-11-11---11-11---11-11---11-11-|
[-22222222222222222222222222222222-9--9—-9----9--9----9--9----9--9-|
  ................................
                                          [2:24]
----------------------------------]      [-----]
----------------------------------]      [-----]
----------------------------------]      [-----]
----------------------------------]      [-----]
-11-11-11---11-11---11-11---11-11-]x1    [-11L-]
-11-11-11---11-11---11-11---11-11-]      [-11L-]
-9--9—-9----9--9----9--9----9--9--]      [-9-L-]

Outro
[2:31]x
[----------------------------------]      [-----]
[----------------------------------]      [-----]
[----------------------------------]      [-----]
[----------------------------------]      [-----]
[-11-11-11---11-11---11-11---11-11-]x2    [-11L-]
[-11-11-11---11-11---11-11---11-11-]      [-11L-]
[-9--9—-9----9--9----9--9----9--9--]      [-9-L-]

[--------------------------------------------------------------------]      [-----]
[--------------------------------------------------------------------]      [-----]
[--------------------------------------------------------------------]      [-----]
[--------------------------------------------------------------------]      [-----]
[-11-11-11---11-11---11-11---11-11--11-11-11---11-11---11-11---11-11-]x8    [-11L-]
[-11-11-11---11-11---11-11---11-11--11-11-11---11-11---11-11---11-11-]      [-11L-]
[-9--9—-9----9--9----9--9----9--9---9--9—-9----9--9----9--9----9--9--]      [-9-L-]

End with:
[-----------------------------------]
[-----------------------------------]
[-----------------------------------]
[-----------------------------------]
[-----------7-----6-----2-----2/4---]x2
[-8-10-0-10---0-0---0-0---0-0-----0-]
[-----------------------------------]
On 2nd time through, it slows up

Piano Ending:
[----------------------]
[----------------12-14-]
[-------------16-------]
[----16-17-18----------]
[-16-------------------]
[----------------------]
[----------------------]