N-Dubz - Missin You Text Guitar Tab

Learn song with the online tabulature player
e|----------------------------------------7-5-4-2-2/4--22------------------------|
B|-----------------------------7-7/9-7-7--9-7-5-4-4/5--44 --------/7-------------|
G|-------9-8-6---6~--6-8-9---------------------------------------9-- 9--8-6------|
D|--------------9----------------------------------------------------------------|
A|-------------------------------------------------------------------------------|
E|-------------------------------------------------------------------------------|

e|----------------------7/9-9-9---9-11-12/14-12-11-12-11-----11----------------|
B|--------------7-9-10------------------------------------14----14-12-14-------|
G|-------6-8-9-----------------------------------------------------------------|
D|-----6-----------------------------------------------------------------------|
A|-----------------------------------------------------------------------------|
E|-----------------------------------------------------------------------------|


woop spanish part of n-dubz missin you:).