N.E.R.D - Dont Worry About It Text Guitar Tab

Learn the song with the online tablature player
This is the fill that comes in a couple times in the verses
e|--------------------------------------------------------------------------|
B|--5p3-5/(6)-7-------------------------------------------------------------|
G|--------------------------------------------------------------------------|
D|--------------------------------------------------------------------------|
A|--------------------------------------------------------------------------|
E|--------------------------------------------------------------------------|

Kick ass riff (Correct Version.. Finally)
e|--------------------------------------------------------------------------|
B|-12b(13)-12—10~~~~~~-------------------12b(13)-12—10~~~~------------------|
G|---------------------11p9----11~~-----------------------11----9h11~~~~~~--|
D|--------------------------11-------------------------------11-------------|
A|--------------------------------------------------------------------------|
E|--------------------------------------------------------------------------|

e|--------------------------------------------------------------------------|
B|-12b(13)-12—10~~~~~~------------------------------------------------------|
G|---------------------11p9---9h11~~~~~~~~----------------------------------|
D|--------------------------11----------------------------------------------|
A|--------------------------------------------------------------------------|
E|--------------------------------------------------------------------------|

After 2nd "Don't worry 'bout it" ...

        Ooohhhhhhhhhhhhhhooooohhhhhaaaaaaaaaaaaaaaaaaaaaaaaaaaaaaaaaaaaaa"
e|--------------------------------------------------------------------------|
B|--------------------------------------------------------------------------|
G|-------1010101010101010----------12121212-7-7-7-7-7-7-7-7-7-7-7-7-7-7-7---|
D|-------1010101010101010-10101010-12121212-7-7-7-7-7-7-7-7-7-7-7-7-7-7-7---|
A|--------8-8-8-8-8-8-8-8-10101010-10101010-5-5-5-5-5-5-5-5-5-5-5-5-5-5-5---|
E|-------------------------8-8-8-8------------------------------------------|

(Timing)  1+2+3+4+5+6+7+8  1+2+3+4  1+2+3+4 1+2+3+4+5+6+7+8+1+2+3+4+5+6+8

I welcome comments and critiques