Nachtmystium - Nightfall Text Guitar Tab

Learn the song with the online tablature player
                             Nightfall - Nachtmystium

Intro

d|-------------------------------------------------|
A|-6-6---6-6---6-6---6-6---6-6---6-6---8-8---8-8---|
F|-7-7---7-7---7-7---7-7---7-7---7-7---7-7---7-7---|
C|-7-7---7-7---7-7---7-7---8-8---8-8---7-7---7-7---|
G|-5-5---5-5---5-5---5-5---5-5---5-5---5-5---5-5---|
D|-------------------------------------------------|

d|-------------------------------------------------|
A|-6-6---------6-6---------6-6---------6-6---------|
F|-7-7---7-7---7-7---7-7---7-7---7-7---7-7---7-7---|
C|-7-7---7-7---7-7---7-7---7-7---7-7---7-7---7-7---|
G|-------5-5---------5-5---------5-5---------5-5---|
D|-------------------------------------------------|

(not sure about the number of strokes here)
d|-------------------------------------------------|
A|-6-6-6-6-6---8-8-8-8-8---------------------------|
F|-7-7-7-7-7---7-7-7-7-7---------------------------|
C|-8-8-8-8-8---7-7-7-7-7---------------------------|
G|-5-5-5-5-5---5-5-5-5-5---------------------------|
D|-------------------------------------------------|

Main Riff

Strum chords with very fast downstrokes. Something like this:

d|-----------------------------------------------------|
A|-6-6-6-6-6--5-5-6-6-5-5-6-6--6-6-6-6-6--8-8-8-8-8----|
F|-7-7-7-7-7--7-7-7-7-7-7-7-7--7-7-7-7-7--7-7-7-7-7----|
C|-7-7-7-7-7--7-7-7-7-7-7-7-7--8-8-8-8-8--7-7-7-7-7----|
G|-5-5-5-5-5--5-5-5-5-5-5-5-5--5-5-5-5-5--5-5-5-5-5----|
D|-----------------------------------------------------|

Repeat Intro

Repeat Main Riff

Repeat first riff from Intro

Chorus

(almost the same as main riff, 1 step higher)

d|----------------------------------------------------------|
A|-8-8-8-8-8--8-8-8-8-8-8-8-8--8-8-8-8-8--10-10-10-10-10----|
F|-9-9-9-9-9--9-9-9-9-9-9-9-9--9-9-9-9-9---9--9--9--9--9----|
C|-9-9-9-9-9--9-9-9-9-9-9-9-9--9-9-9-9-9---9--9--9--9--9----|
G|-7-7-7-7-7--7-7-7-7-7-7-7-7--7-7-7-7-7---7--7--7--7--7----|
D|----------------------------------------------------------|

d|---------------------------------------------------------------|
A|-8-8-8-8-8--7-7-8-8-7-7-8-8---8--8--8--8--8--10-10-10-10-10----|
F|-9-9-9-9-9--9-9-9-9-9-9-9-9---9--9--9--9--9---9--9--9--9--9----|
C|-9-9-9-9-9--9-9-9-9-9-9-9-9--10-10-10-10-10---9--9--9--9--9----|
G|-7-7-7-7-7--7-7-7-7-7-7-7-7---7--7--7--7--7---7--7--7--7--7----|
D|---------------------------------------------------------------|

1st solo
haven't tabbed yet =( )

Play Main Riff during first solo

Chorus
second riff)

d|-------------------|
A|-5-5-5-5--3-3-3-3--|
F|-4-4-4-4--4-4-4-4--|
C|-5-5-5-5--5-5-5-5--|
G|-------------------|
D|-------------------|

2nd solo
haven't tabbed yet =( ) repeat 2nd chorus's riff

play main riff with palm mute

Repeat Main Riff