Nada Surf - Blue Moon Text Guitar Tab

Learn the song with the online tablature player
Nada Surf - Blue Moon (Big Star cover)

C  G  Am  Em  F  G  Am  F

C              G
let me be your warm light
Am              Em
if you'd like a true heart
F                G
take the time to show your mind
Am                    F
i'll be the blue moon in the dark

while you sleep you'll see me there
clouds race across the sky
close your eyes don't ask why
i'll be the blue moon in your eyes

French horn solo
C         G       Am       Em          F       G     Am        F
---------------------------------------------------------------------|
---------------------------------------------------------------------|
-5h7/9-10/12--4---5-5-4-2--0----------------2-----7--9-7-4h5-4-2--4--|
-----------------------------3-2---0-2h3-3-----5---------------------|
---------------------------------------------------------------------|
---------------------------------------------------------------------|

when morning comes and sleeping's done
birds sing outside
if the demons come while you're under
i'll be the blue moon in the sky

let me be your warm light
if you'd like a true heart
take the time and show your mind
i'll be the blue moon in the dark

C  G  G  C

chords:
  C   G   Am  Em  F
--0---3---0---0---1--|
--1---3---1---0---1--|
--0---0---2---0---2--|
--2---0---2---2---3--|
--3---2---0---2---3--|
-(3)--3-------0---1--|