Nada Surf - Traffic Text Guitar Tab

Learn the song with the online tablature player
Nada Surf - Traffic

Guitar:
---------------|
--13-----------|  repeats the same
-----14----14--|  thing throughout
--------12-----|
---------------|
---------------|

Bass
riff 1
-----------------------------------|
-----------------------------------|
------------------5-5-5-5-5-5-5-5--|
--6-6-6-6-6-6-6-6------------------|

riff 2
-----------------------------------|
-----------------------------------|
-----------------------------------|
--6-6-6-6-6-6-6-6-8-8-8-8-8-8-8-8--|

riff 3
-----------------------------------|
-----------------------------------|
--8-8-7-8-8-7-7-5-5-5-5-5-5-5-5-5--|
-----------------------------------|

riff 4
-------------------|
-------------------|
-------------------|
--6-6-6-6-6-6-6-6--|

order of bass riffs:
riff 1
riff 2
riff 1
riff 2
riff 1
riff 3
riff 1
riff 2
riff 3
riff 1
riff 2
riff 1
riff 3
riff 3
riff 3
riff 1
riff 4
riff 3
riff 2
riff 3
riff 2
riff 4
riff 3