Nailbomb - Point Blank Text Guitar Tab

Learn the song with the online tablature player
                          NAILBOMB-POINT BLANK
                             Vai Toma No Cu

Heres 2 rhythms, Verse and Chorus

|-------------------------------------------------------------------|
|-------------------------------------------------------------------|
|-------------------------------------------------------------------|
|-3-3---3-3--3-3---3-3---3-3-3--3-3--3-3---3-3---3-3---6--5---------|
|-3-3---3-3--3-3---3-3---3-3-3--3-3--3-3---3-3---3-3---6--5---------|
|-1-1---1-1--1-1---1-1---1-1-1--1-1--1-1---1-1---1-1---4--3---------|

Chorus

|-------------------------------------------------------------------|
|-------------------------------------------------------------------|
|-------------------------------------------------------------------|
|-------------------------------------------------------------------|
|-3---3---3----4---4---4------7-7\----------------------------------|
|-1---1---1----2---2---2------5-5\----------------------------------|