Nakatomi Plaza - Consider This A Hostile Takeover Text Guitar Tab

Learn the song with the online tablature player
~ = vibrato or held note
h = hammer on
p = pull off
s = slide
b = bend string up to indicated pitch/fret
r = release bend to indicated string/fret
/ = slide up from infinity
\ = slide down into infinity

Intro
Guitar One
e|---------------------------------|
B|---------------------------------|
G|-------------------------6-6-6-6-|
D|-4-4-4-2-2-2-6-6-6-2-2-2-6-6-6-6-|
A|-4-4-4-2-2-2-6-6-6-2-2-2-4-4-4-4-|
E|-2-2-2-0-0-0-4-4-4-0-0-0---------|

Intro
Guitar Two
e|-------------------------------------19---------|
B|-16h17p16h17p16h17p16h17p16h17p16h17----17p1617-|
G|------------------------------------------------|
D|------------------------------------------------|
A|------------------------------------------------|
E|------------------------------------------------|

Verse One
e|---------|
B|---------|
G|-------6-|
D|-4-2-6-6-|
A|-4-2-6-4-|
E|-2-0-4---|

Verse Two
e|-------------------------------|
B|-------------------------------|
G|-------------------------6-6-6-|
D|-4-4-4-2-2-2-6-6-6-2-2-2-6-6-6-|
A|-4-4-4-2-2-2-6-6-6-2-2-2-4-4-4-|
E|-2-2-2-0-0-0-4-4-4-0-0-0-------|

Prechorus
e|---------------------------------------------------------------|
B|---------------------------------------------------------------|
G|-/16x-16--16-16-16--16-16-16--16-16-16-9-9--11-11-11--11-11-11-|
D|---------------------------------------------------------------|
A|-/14x-14--14-14-14--14-14-14--14-14-14-9-9--9--9--9---9--9--9--|
E|---------------------------------------------------------------|

Chorus
Guitar One
e|---------------------------------------------------------------|
B|---------------------------------------------------------------|
G|-/16x-16-16-16-16--16-16-16--16-16-16--------------------------|
D|---------------------------------------------------------------|
A|-/14x-14-14-14-14--14-14-14--14-14-14--6-6-7-6-6-7-6-6-7-6-6-7-|
E|---------------------------------------------------------------|

Chorus
Guitar Two
e|--------------------------------------------------------|
B|--------------------------------------------------------|
G|--------------------------------------------------------|
D|-7-7-7--7-7-7--7-7-7--7-7-7--2-2-2--2-2-2--2-2-2--2-2-2-|
A|-7-7-7--7-7-7--7-7-7--7-7-7--2-2-2--2-2-2--2-2-2--2-2-2-|
E|-5-5-5--5-5-5--5-5-5--5-5-5--0-0-0--0-0-0--0-0-0--0-0-0-|

Verse 3
e|------------4-4----------------------7-7-----------|
B|----------------7-5-4-5-7----------------5-4-5-4-0-|
G|---------------------------------------------------|
D|--------------------------2-2--2-2-2---------------|
A|-7-7--7-7-7---------------2-2--2-2-2---------------|
E|-5-5--5-5-5---------------0-0--0-0-0---------------|

Outro
e|---------------------------------|
B|---------------------------------|
G|-------------------------6-6-6-6-|
D|-4-4-4-2-2-2-6-6-6-2-2-2-6-6-6-6-|
A|-4-4-4-2-2-2-6-6-6-2-2-2-4-4-4-4-|
E|-2-2-2-0-0-0-4-4-4-0-0-0---------|