Napalm Death - Deceiver Text Guitar Tab

Learn the song with the online tablature player
Tab Written - January 16th, 2007

Main Riff
E|---------|
B|---------|
G|---------|   (play this through out the whole song, its the only chord)
D|---------|
A|----6-0--|
D|----6-0--|

End
E|-----------|
B|-----------|
G|-----------|
D|-----------|
A|----6-1-0--|
D|----6-1-0--|

Finished...

Nice and easy, classic Napalm Death.

- Jordo.