Napalm Death - I Abstain Text Guitar Tab

Learn the song with the online tablature player
I Abstain
Utopia Banished
Tune down one step and a half

Intro
palm mute when needed)
32----2-----63432----2---- -635241 462432 -2^3^2-32---2^3^2-32----2^3^2-32----2-
10 00 0 000 41210-00-0-000 -4-3-2- -4-21- 3------10003------1000 3------100003--

Committed to...

---4-------4-5-----------------------------------------
4542434-454243-----------------------------------------
232-212-232-2------------------------------------------

But you stand steadfast?

------444------------------ ----------------------------
---------444333------666333 -444333---------------------
000222---------222444------ ----------------------------

People are not subjects
32----32-32-32--- -5-6-6 -1/2-2--------------------------
10-00-10-10 10-00 -3/4-4 --------------------------------

Open your eyes!

-666-555-444-333---------------------------------------
6444633352224111---------------------------------------
4---4---3---2------------------------------------------

Theyre shaping you...

2-109-2-65-9-2-109-2-65-8------------------------------
0-8 7-0-43-7-0-8 7-0-43-6------------------------------

I abstain...