Napalm Death - Inside The Torn Apart Text Guitar Tab

Learn the song with the online tablature player
riff 1
|-------------------------------|
|-------------------------------|
|-666---6666---6666---666-6/777-|
|-000---0000---0000---000-0-000-|
|-444-0-4444-0-4444-0-444-4/555-|
|-------------------------------|

riff 2
|----------------------------------|
|----------------------------------|
|----------------------------------|
|----------------------------------| gtr1
|-----------------23333-23333-2333-|
|-5-5-5-5-5-5-5-5-01111-01111-0111-|
|
|----------------------------------|
|----------------------------------|
|----------------------------------|
|----------------------------------| gtr 2
|-----------------23333-23333-2333-|
|-0-0-0-0-0-0-0-0-01111-01111-0111-|

riff 3
|----------|
|----------|
|----------|
|----------|gtr 1
|----------|
|-5-----55-|
|
|----------|
|----------|
|----------|
|----------|gtr 2
|----------|
|-0-----00-|

riff 4
|-----------------------------------------|
|-----------------------------------------|
|-----------------------------------------|
|---------------5---6---------------5-----|gtr 1
|------5------5---4--------5------5---4-5-|
|-5555---5555---------5555---5555---------|
|
|-----------------------------------------|
|-----------------------------------------|
|-----------------------------------------|
|---------------5---6---------------5-----|gtr 2
|-----------------4-------------------4-5-|
|-0000-5-0000-5-------0000-5-0000-5-------|

|------------------------------------|
|------------------------------------|
|---------------------------------7"-|
|---------------5---6-------------0"-|gtr 1
|------5------5---4--------5------5"-|
|-5555---5555---------5555---5555----|
|
|------------------------------------|
|------------------------------------|
|---------------------------------7"-|
|---------------5---6-------------0"-|gtr 2
|-----------------4---------------5"-|
|-0000-5-0000-5-------0000-5-0000----|