Napalm Death - Mad Text Guitar Tab

Learn the song with the online tablature player
Napalm Death - M.A.D.
'encoded' by Katham
detune down one whole step (E=D and so forth)

Intro Riff
x4)
D-------------------|
A-------------------|
F-------------------|
C-------------------|
G--5-5-5-3-5-5-5-3--|
D--3-3-3-1-3-3-3-1--|

Main Riff (x1)
D-------------------------------|
A-------------------------------|
F-------------------------------|
C-------------------------------|
G--4-5-4-5-4-5-7-4-5-4-5-4-5-7--|
D--2-3-2-3-2-3-5-2-3-2-3-2-3-5--|

Intro Riff
x2)
Main Riff (x1)

Intro Riff
x1)

Outtro Riff 1 (x2)
D--------------------|
A--------------------|
F--------------------|
C--------------------|
G--3333333333333333--|
D--1111111111111111--|

Outtro Riff 2 (x2)
D---------------------|
A---------------------|
F---------------------|
C---------------------|
G--3333-4-5-3333-5-4--|
D--1111-2-4-1111-4-2--|

Outtro Riff 1 (x2)
Outtro Riff 2 (x2)
Outtro Riff 1 (x2)
Outtro Riff 2 (x2)

Do some feedback (mainly high-pitch with sharp tremolo at the ending)

stuff:
/=Slide up
\=Slide down
^=Hammer