Napalm Death - Nultinational Corporations Text Guitar Tab

Learn the song with the online tablature player
Song:multinational corporations
Band:napalm death
Album:scum

1st riff
(play very fast but lightly)
E--------------(8x)-------------|
B---12-12-12-12-----------------|
G---13-13-13-13-----------------|
D-------------------------------|
A-------------------------------|
E-------------------------------|
(other half of 1st riff,same speed as above)
E-------(8x)----|
B--12-12-12-12--|
G--12-12-12-12--|
D---------------|
A---------------|
E---------------|

I know this is sort of confusing,but listen real close to the timing
on this song. it's 1:00 in length. very easy! e-mail me for comments
or anything else.