Napalm Death - Ulterior Exterior Text Guitar Tab

Learn the song with the online tablature player
Ulterior Exterior
Words from the exit wound
Tune down as usual (step and a half)

Main riff (this riff reminds me of Dementia Access)

322-333-06-08-0-3-3-06-08 03-3-06-08-03-3------------------
1---111----------4----------4----------4-------------------

Chorus

-9----7----9----7----9----7----9----7----------------------
7--8-5--6-7--8-5----7--8-5--6-7--8-5-666-------------------
--6----4----6----44---6----4----6----444-------------------
( I wrote each part only once)

--------7-8-5-7--------------------------------------------
8-9-5-8---------7-8-5-7------------------------------------

4442-----------------------------------------------------------