Nappy Roots - Awnaw Remix Text Guitar Tab

Learn the song with the online tablature player
(Verses)

(  :14)
e--------------------------------------------------------
B--------------------------------------------------------
G--------------------------------------------------------
D---2----2--0--x-x-x--2----2--0--x-x-x--2----2--0--x-x-x-
A---2----2--0--x-x-x--2----2--0--x-x-x--2----2--0--x-x-x-
D---2----2--0--x-x-x--2----2--0--x-x-x--2----2--0--x-x-x-

e------------------------------------------------|*-----
B------------------------------------------------|*-----
G--5-5-5-5-5-5-5-5-5-/-7-7-7-7-7-7-7-7-7---------|*-----
D--3-3-3-3-3-3-3-3-3-/-5-5-5-5-5-5-5-5-5---------|*-----
A--3-3-3-3-3-3-3-3-3-/-5-5-5-5-5-5-5-5-5---------|*-----
D------------------------------------------------|*-----

( 2:02)
e------------------------------------------------|*-----
B------------------------------------------------|*-----
G------------------------------------------------|*-----
D---2-0-4-0-5-0-10-9-7-5-7-5-2-0-4-0-------------|*-----
A---2-0-4-0-5-0-10-9-7-5-7-5-2-0-4-0-------------|*-----
D---2-0-4-0-5-0-10-9-7-5-7-5-2-0-4-0-------------|*-----

( 2:50)
e-----------------------------------------------------------------
B-----------------------------------------------------------------
G-----------------------------------------------------------------
D--2-0-2-0-2-0-2-4-2-0--2-0-2-0-2-0-2-4-2-0--2-0-2-0-2-0-2-4-2-0--
A--2-0-2-0-2-0-2-4-2-0--2-0-2-0-2-0-2-4-2-0--2-0-2-0-2-0-2-4-2-0--
D--2-0-2-0-2-0-2-4-2-0--2-0-2-0-2-0-2-4-2-0--2-0-2-0-2-0-2-4-2-0--

e------------------------------------------------|*-----
B------------------------------------------------|*-----
G------------------------------------------------|*-----
D--5-5-5-5-5-5-5-5-5-/-7-7-7-7-7-7-7-7-7---------|*-----
A--5-5-5-5-5-5-5-5-5-/-7-7-7-7-7-7-7-7-7---------|*-----
D--3-3-3-3-3-3-3-3-3-/-5-5-5-5-5-5-5-5-5---------|*-----