Naratu - Pukimak Text Guitar Tab

Learn the song with the online tablature player
!----------------------------------------------------!
| A great song buy our local HX band!                |
| This song is pretty simple, and fun to play!       |
| Even though some people find the lyrics are funny, |
| but the music is the best!                         |
!----------------------------------------------------|

[INTRO/RIFF]

Guitar 1
e|-------------------------------|
B|-------------------------------|
G|-------------------------333---|
D|-0-000-1-000-1-000-1-000-333---|
A|-0-000-1-000-1-000-1-000-111---|
D|-0-000-1-000-1-000-1-000-------|
PM   ...   ...   ...   ...

e|-------------------------------|
B|-------------------------------|
G|-------------------------333---|
D|-0-000-1-000-1-000-1-000-333-0-|
A|-0-000-1-000-1-000-1-000-111-0-|
D|-0-000-1-000-1-000-1-000-----0-|
PM   ...   ...   ...   ...

VERSE

Pretty mush the same as the [INTRO/RIFF]

Guitar 1
e|-----------------------------|x2
B|-----------------------------|
G|-------------------------333-|
D|-0-000-1-000-1-000-1-000-333-|
A|-0-000-1-000-1-000-1-000-111-|
D|-0-000-1-000-1-000-1-000-----|
PM   ...   ...   ...   ...

CHORUS

e|-----------------------------|
B|-----------------------------|
G|-----------------------------|
D|-0000-0-00-0-0000-0-00-01----|
A|-0000-0-00-0-0000-0-00-01----|
D|-0000-0-00-0-0000-0-00-01----|\
PM .... . .. . .... . .. .       \
                                  }x2
                                 /
e|-----------------------------|/
B|-----------------------------|
G|-----------------------------|
D|-0000-0-00-0-06-05-03-01-111-|
A|-0000-0-00-0-06-05-03-01-111-|
D|-0000-0-00-0-06-05-03-01-111-|
PM .... . .. .

"SAMPAH!"

Guitar 1
e|-------------------------------------------------|
B|-------------------------------------------------|
G|-------------------------------------------------|
D|-00*--------00*--------00*--------00*--------00*-|
A|-00*--------00*--------00*--------00*--------00*-|
D|-00*--------00*--------00*--------00*--------00*-|

Guitar 2
e|-------------------------------------------------|
B|-------------------------------------------------|
G|-------------------------------------------------|
D|-------------------------------------------------|
A|-----55555*-----55555*-----55555*-----55555*-----|
D|-------------------------------------------------|

Repeat [RIFF]

VERSE 2

Guitar 1
e|-----------------------------|x2
B|-----------------------------|
G|-------------------------333-|
D|-0-000-1-000-1-000-1-000-333-|
A|-0-000-1-000-1-000-1-000-111-|
D|-0-000-1-000-1-000-1-000-----|
PM   ...   ...   ...   ...

CHORUS

e|-----------------------------|
B|-----------------------------|
G|-----------------------------|
D|-0000-0-00-0-0000-0-00-01----|
A|-0000-0-00-0-0000-0-00-01----|
D|-0000-0-00-0-0000-0-00-01----|\
PM .... . .. . .... . .. .       \
                                  }x2
                                 /
e|-----------------------------|/
B|-----------------------------|
G|-----------------------------|
D|-0000-0-00-0-06-05-03-01-111-|
A|-0000-0-00-0-06-05-03-01-111-|
D|-0000-0-00-0-06-05-03-01-111-|
PM .... . .. .

"SAMPAH!"

Guitar 1
e|-------------------------------------------------|
B|-------------------------------------------------|
G|-------------------------------------------------|
D|-00*--------00*--------00*--------00*--------00*-|
A|-00*--------00*--------00*--------00*--------00*-|
D|-00*--------00*--------00*--------00*--------00*-|

Guitar 2
e|-------------------------------------------------|
B|-------------------------------------------------|
G|-------------------------------------------------|
D|-------------------------------------------------|
A|-----55555*-----55555*-----55555*-----55555*-----|
D|-------------------------------------------------|

BREAKDOWN

e|---------|
B|---------|
G|---------|
D|-0000000-|
A|-0000000-|
D|-0000000-|
PM .......

e|-------------------------------| x3
B|-------------------------------|
G|-------------55----------------|
D|-00-00-00-00-55 00-00-00-00-11-|
A|-00-00-00-00-33-00-00-00-00-11-|
D|-00-00-00-00----00-00-00-00-11-|
PM .. .. .. ..    .. .. .. ..

e|------------------------|
B|------------------------|
G|-------------55---------|
D|-00-00-00-00-55 0000000-|
A|-00-00-00-00-33-0000000-|
D|-00-00-00-00----0000000-|
PM .. .. .. ..    .......

e|-------------| x4
B|-------------|
G|-------------|
D|-0000-0-00-0-|
A|-0000-0-00-0-|
D|-0000-0-00-0-|

Repeat [CHORUS]

2nd time of [CHORUS] in the end:

e|-----------------------------|
B|-----------------------------|
G|-----------------------------|
D|-0000-0-00-0-0000-0-00-01----|
A|-0000-0-00-0-0000-0-00-01----|
D|-0000-0-00-0-0000-0-00-01----|
PM .... . .. . .... . .. .

e|----------------------|
B|----------------------|
G|----------------------|
D|-0000-0-00-0-06-05-03-|
A|-0000-0-00-0-06-05-03-|
D|-0000-0-00-0-06-05-03-|
PM .... . .. .

OUTRO

e|----------|
B|----------|
G|----------|
D|-1-0-1-0*-|
A|-1-0-1-0*-|
D|-1-0-1-0*-|
PM . . .

ENJOY!