Narvaez Luis De - Je Veulx Laysser Melancolie Text Guitar Tab

Learn the song with the online tablature player
E||-----------|------------|--2------0--|--2----4----|--5--4--5--4--|
B||--0--------|--0----0----|------------|------------|--------------|
G||-----------|------------|------------|------------|--------------|
D||-----------|------------|------------|------------|--4--------6--|
A||-----------|------------|--2---------|--2----2----|--------------|
E||-----------|------------|------------|------------|--------------|

--2--0-------|-----2--2----|-----1--2--1--|--2--0--2-0-----|--2-------4--|
-------------|--------0----|--0-----------|--0---------3-2-|--3----0-----|
--2-----1----|--2----------|--1-----------|----------------|-------------|
-------------|-------------|--------------|--4-------------|-------------|
-------------|-------------|--------------|--2-------------|--2----2-----|
-------------|-------------|--------------|----------------|-------------|

--5--4--5--4--|--2--0--4----|-----2--2----|-----1--2--1--|--2---------|
--2-----------|--------2----|--3-----0----|--2-----------|-------0----|
-----------1--|--2----------|--2----------|--1-----------|--2---------|
--4-----------|--------2----|--0----------|--------------|--0---------|
--------------|-------------|--------2----|--4-----------|-------2----|
--------------|-------------|-------------|--------------|------------|

-----------------|------------|------------|--2-------0--|--2----4----|
--2--0-----------|--0----0----|--0----0----|-------------|------------|
-------3-1---1-3-|------------|------------|-------------|------------|
--4--------4-----|------------|------------|-------------|------------|
-----------------|--2---------|--2---------|-------2-----|--2----2----|
-----------------|------------|------------|-------------|------------|

--5--4--5--4--|--2--0--4----|-----2--2----|--2--1--2--1--|--2--0--2-0-----|
--------------|-------------|--------0----|--0-----------|--0---------3-2-|
-----------1--|--2-----1----|--2----------|--1-----------|----------------|
--4-----------|-------------|-------------|--------------|--4-------------|
--------------|-------------|-------------|--------------|--2-------------|
--------------|-------------|-------------|--------------|----------------|

--2-------4--|--5--4--5--4--|--2--0--2----|-----2--2----|-----0--2--0--|
--3----0-----|--2-----------|--------0----|--3-----3----|--2-----------|
-------------|-----------1--|--2-----1----|--2-----4----|--1-----------|
-------------|--4-----------|--------2----|--0----------|--------------|
--2----2-----|--------------|-------------|--------2----|--4-----------|
-------------|--------------|-------------|-------------|--------------|

--2----------|-------------|-------2----|--0---------|--------------|
-------3-----|--------2----|-------0----|--2----2----|--0--2--0-----|
--2----------|-----1--2----|--1---------|-------3----|-----------2--|
--0-------2--|--4----------|--2----0----|-------2----|--------4-----|
-------2-----|-------------|------------|--4---------|--2-----------|
-------------|-------------|------------|------------|--------------|

------------|--------------|----------------|--------2----|--0---------|
------------|--0--2--3--2--|--0-----2-------|-----0--0----|--0----2----|
--1----2----|--------------|-----2----------|-------------|-------3----|
--2---------|--0-----------|--2--------0h---|--0----------|------------|
-------4----|--------2-----|--------------4-|--------2----|--4---------|
------------|--------------|----------------|-------------|------------|

--------------|------------|--------------|----------------|--------2----|
--0--2--0-----|------------|--0--2--3--2--|--0-----2-------|-----0--0----|
-----------2--|--1----2----|--------------|--1--2----------|-------------|
--------4-----|--2---------|--0-----------|--2--------0h---|--0----------|
--2-----------|-------4----|--------2-----|--------------4-|--------2----|
--------------|------------|--------------|----------------|-------------|

--0---------|--------------|--------------|-------------|-------------|
-------2----|--0--2--3-----|--2--0--------|--0----0--2--|--0-----2----|
-------3----|-----------2--|--1-----2--1--|-------------|--1--2--2----|
------------|--------4-----|--2-----------|--0----------|--2-----2----|
--4---------|--2-----------|--4-----4-----|--2----2-----|--------0----|
------------|--------------|--------2-----|-------------|--0----------|

-------------|--------------|--------------|------------|------------|
-----0--0----|--------0-----|--0-----------|------------|-------0----|
-------------|-----3-----3--|--------------|------------|------------|
--4-----2----|--4-----------|---------4----|--4----4----|--2---------|
--5----------|--4-----------|--2-----------|--2---------|------------|
--7-----4----|--2-----------|--------------|------------|------------|

------------|---------------|--------0-----|--0-----0----|-------------|
--0----0----|---------------|--------0-----|-------------|--0----0--2--|
------------|--2--1---2--1--|--2-----------|--------3----|-------------|
--2---------|--0----4----2--|--4--4--2--0--|-------------|-------------|
-------2----|---------------|--------------|--4--2--4----|--2----------|
------------|---------------|--------------|-------------|-------------|

-----0--2--4--|--5-------4--|--2--0--2-----|--0----------|----------------|
--0-----0-----|-------------|-----------0--|--2-----0----|-----------0----|
--------------|--2----------|-----1--2-----|-----2-------|-------3-1---3--|
--------------|-------4-----|--4-----------|-------------|----------------|
--2-----------|-------------|--------------|-------------|----------------|
--------------|-------------|--------------|-------------|----------------|

------------|-------------|---------------|-------------|-------------|
--0----0----|--0----0--2--|--3--2-0-3--2--|--0-----2----|-----0--0----|
-------1----|-------1-----|---------------|-----2--2----|--1-----1----|
-------2----|-------2-----|--4------------|--0--2--4----|--0-----0----|
------------|-------------|--2---------4--|-------------|-------------|
--0---------|--0----0-----|---------------|--------2----|--4-----4----|

---------------|------------|--------------0-|--2-3-2-0----0--|--2----4----|
---------0-----|--0----0----|--0--2--3-2-3---|----------3-----|------------|
-----3-1----3--|------------|----------------|----------------|------------|
--4------------|--4---------|--4-------------|----------------|------------|
--4------------|--2---------|--2-------------|--2-------------|--2----2----|
--2------------|------------|----------------|----------------|------------|

--5--4-2-5--4--|--2--0--4----|-----2--2----|-----1--2--1--|--2--1--2-0-----|
---------------|-------------|--------0----|--0-----------|--0---------3-2-|
------------1--|--2-----1----|--2----------|--1-----------|----------------|
--4------------|-------------|-------------|--------------|--4-------------|
---------------|-------------|-------------|--------------|--2-------------|
---------------|-------------|-------------|--------------|----------------|

--2----2--4--|--5--4-2-5--4--|--2--0--4----|-----2--2----|-----1--2--1--|
--3----0-----|--2------------|--------2----|--------3----|--2-----------|
-------------|------------1--|--2----------|--2----------|--1-----------|
-------------|--4------------|--------2----|--0----------|--------------|
--2----2-----|---------------|-------------|--------2----|--4-----------|
-------------|---------------|-------------|-------------|--------------|

--2---------|-----------------|------------|------------|--2-------0--|
-------3----|--2--0-----------|--0----0----|--0----0----|-------------|
--2---------|-------3-1---1-3-|------------|------------|-------------|
--0----4----|--4--------4-----|------------|------------|-------------|
-------2----|-----------------|--2---------|--2---------|-------2-----|
------------|-----------------|------------|------------|-------------|

--2----4----|--5--4-2-5--4--|--2--0--4----|-----2--2----|-----1--2--1--|
------------|---------------|-------------|--------0----|--0-----------|
------------|------------1--|--2-----1----|--2----------|--1-----------|
------------|--4------------|-------------|-------------|--------------|
--2----2----|---------------|-------------|-------------|--------------|
------------|---------------|-------------|-------------|--------------|

--2--0--2-0-----|--2----2--4--|--5--4-2-5--4--|--2--0--4----|-----2--2----|
--0---------3-2-|--3----0-----|--2------------|--------2----|--3-----3----|
----------------|-------------|------------1--|--2----------|--2----------|
--4-------------|-------------|--4------------|--------2----|--0----------|
--2-------------|--2----2-----|---------------|-------------|--------2----|
----------------|-------------|---------------|-------------|-------------|

-----1--2--1--|--2----------|-------------------|--0----------------|
--2-----------|-------3-----|-----0--2--3-------|--------0-------3--|
--1-----------|--2-------1--|--2-----2----------|-----2-----1-------|
--------------|--0----4-----|--4-----------2----|-----------2-------|
--4-----------|-------2-----|-------------------|--4----------------|
--------------|-------------|-------------------|-------------------|

--------------|----------------|-------------|-------------|---------------|
--0-----0-----|-----2----------|--0-----2----|-----0--0----|---------0-----|
--1--2-----2--|--------2-------|-----1--2----|--------0----|-----3-1----3--|
--2--0--------|--4-------------|--4-----2----|--4-----2----|--4------------|
--------2-----|--5----------4--|--------0----|--5----------|--4------------|
--------------|----------------|-------------|--7-----3----|--2------------|