Nas - I Can Text Guitar Tab

Learn the song with the online tablature player
                             I CAN - NAS

e|--0-----0------0-----------------------------------------------------------|
B|-----4------4-----0---3----1-----------------------------------------------|
G|------------------------------2------2--4---2--4-5-------------------------|
D|---------------------------------2-----------------------------------------|
A|---------------------------------------------------------------------------|
E|---------------------------------------------------------------------------|

e|-0------0------0---------------------------------------|
B|----4-------4-----0---3---1----------------------------|
G|------------------------------2-----2---4---5--4--2----|
D|---------------------------------2---------------------|
A|-------------------------------------------------------|
E|-------------------------------------------------------|

e|-------------------------------------------------------------------------|
B|-------------------------------------------------------------------------|
G|---5---7----9---10---9---7----9----7---5----7---5---4----2---4----5--4-2-|
D|-------------------------------------------------------------------------|
A|-------------------------------------------------------------------------|
E|-------------------------------------------------------------------------|