Nasum - Disforest Text Guitar Tab

Learn the song with the online tablature player
Tab Written On - April 11th, 2007

Legend:
/  - slide up to
~ - vibrato

E|------------------------------------------------|
B|------------------------------------------------|
G|------------------------------------------------|
D|------------------------------------------------|
A|-7-6-2--3--3~--3-5-2~--3--7-6-2--3--3~--3-5-2~--|
D|-7-6-2--3--3~--3-5-2~--3--7-6-2--3--3~--3-5-2~--|

E|-----------|
B|-----------|
G|-----------|
D|-----------|
A|-3--7-6-2--|
D|-3--7-6-2--|

E|---------------|
B|---------------|
G|---------------|  x 3 (physco picking action!)
D|---------------|
A|----3-3--------|
D|-3-3---4-4-2-2-|

E|-------------------|
B|-------------------|
G|-------------------|
D|-------------------|
A|----3-3----1/2-3-5-|
D|-3-3---4-4-1/2-3-5-|

Finished...

Best 10 second song I've ever heard.

Nasum = Kings of grind!

- Jordo.