Nasum - Stalemate Text Guitar Tab

Learn the song with the online tablature player
Tab Written On - January 16th, 2007

Legend:
' - slight palm mute

E|------------------|
B|------------------|
G|------------------|
D|----------4-2---6-| x 2
A|-4-3-4-3--2-1-4-4-|
E|-2-1-2-1------2---|

E|------------------|
B|------------------|
G|------------------|
D|----------4-2---6-| x 2
A|-4-3-4-3--2-1-4-4-|
E|-2-1-2-1------2---|
   ' ' ' '  ' ' ' '

E|-------------------------------------|
B|-------------------------------------|
G|-------------------------------------| X 4 (pick as fast as you can)
D|-------------------------------------|
A|-------------------22221111-----4444-|
E|--2222111122221111----------2222-----|

E|------------------------------------|
B|------------------------------------|
G|------------------------------------|
D|------------------------------------|
A|-4444444444444444-22222222-55555555-|
E|-2222222222222222-00000000-33333333-|

E|------------------------------------|
B|------------------------------------|
G|------------------------------------|
D|------------------------------------|
A|-4444444444444444-55555555-22222222-|
E|-2222222222222222-33333333-00000000-|

E|------------------------------------|
B|------------------------------------|
G|------------------------------------|
D|------------------------------------|
A|-4444444444444444-22222222-55555555-|
E|-2222222222222222-00000000-33333333-|

E|------------------------------------|
B|------------------------------------|
G|------------------------------------|
D|------------------------------------|
A|-4444444444444444-55555555-2-2-2-2--|
E|-2222222222222222-33333333-0-0-0-0--|

E|-------------------------------------|
B|-------------------------------------|
G|-------------------------------------| X 4 (once again, fast picking)
D|-------------------------------------|
A|-------------------22221111-----4444-|
E|--2222111122221111----------2222-----|

E|------------------------------------|
B|------------------------------------|
G|------------------------------------|
D|------------------------------------|
A|-4444444444444444-22222222-55555555-|
E|-2222222222222222-00000000-33333333-|

E|------------------------------------|
B|------------------------------------|
G|------------------------------------|
D|------------------------------------|
A|-4444444444444444-55555555-22222222-|
E|-2222222222222222-33333333-00000000-|

E|------------------------------------|
B|------------------------------------|
G|------------------------------------|
D|------------------------------------|
A|-4444444444444444-22222222-55555555-|
E|-2222222222222222-00000000-33333333-|

E|------------------------------------|
B|------------------------------------|
G|------------------------------------|
D|------------------------------------|
A|-4444444444444444-5-5-5-5-2-2-2-2---|
E|-2222222222222222-3-3-3-3-0-0-0-0---|

E|------------------|
B|------------------|
G|------------------|  X 2
D|----------4-2---6-|
A|-4-3-4-3--2-1-4-4-|
E|-2-1-2-1------2---|

E|---------|
B|---------|
G|---------|
D|---------|
A|---------|
E|-2/15\2--|

E|------------------|
B|------------------|
G|------------------|   X 2
D|----------4-2---6-|
A|-4-3-4-3--2-1-4-4-|
E|-2-1-2-1------2---|
   ' ' ' '  ' ' ' '
E|---|
B|---|
G|---|
D|---|
A|-4-|
E|-2-|

Finished...

A very good cover of Napalm Death's "Stalemate".

Nasum = Kings Of Grind!

- Jordo.