Natasha Thomas - Save Your Kisses For Me Text Guitar Tab

Learn the song with the online tablature player
Intro

e|--------------------------------------------------|
B|-----------------3-----------4---4-----4---3------|
G|-------1-------3-----------5---5---5---5---3------|
D|-----3-------3-----------5-------------5---3------|
A|---3------1-----------3----------------3---1------|
E|-1------------------------------------------------|

e|------------------------------------|
B|-----------------3-----------4------|
G|-------1-------3-----------5--------|
D|-----3-------3-----------5----------|
A|---3------1-----------3-------------|
E|-1----------------------------------|

Chorus

   Fm   Bb  Cm   C#   Bsus4   B

e|--1------------------6------6----------|
B|--1----3---4----5----6------6----------|
G|--1----3---5----5----8------7----------|
D|--3----3---5----5----8------8----------|
A|--3----1---3----4----8------8----------|
E|--1------------------6------6----------|

             Fm          Bb
Save your kisses for me

         Cm
show me how you miss me

     Fm       Bb     Cm
all so easily     my lovin

             Fm          Bb
Save your kisses for me

       Cm             C#                 Bbsus4  Bb
cos I don't wanna be a summer love thing

Verse

Play chords in a funky staccato manner

    Cm    Fm      Bb

e|---8-----1------1------|
B|---8-----1------3------|
G|---8-----1------3------|
D|---10----3-------------|
A|-----------------------|
E|-----------------------|

Cm                   Fm           Bb
The way of your touch is always heavenly

Cm               Fm            Bb
and I love the way that you're loving me

Cm                Fm            Bb
You wrapped me up in the color of your love

Cm               Fm           Bb
you must be an angel high from above

Pre Chorus:

  Cm   Fm    Gm  G#   Bb

e|-3----1----3---4-----6----|
B|-4----1----3---4-----6----|
G|-5----1----3---5-----7----|
D|-5----3----5---6-----8----|
A|-3----3----5---6-----8----|
E|------1----3---4-----6----|

Cm       Fm      Bb    Gm        G#     Fm       Bb
How can I be sure that you won't go and what will be

Bridge

    G#     Bb   E

e|---4-----6----7-|
B|---4-----6----9-|
G|---5-----7----9-|
D|---6-----8----9-|
A|---6-----8----7-|
E|---4-----6------|

G#             Bb       G#
One kiss, one love, one word

    Bb               G#
one vow and nothing more

    Bb     E   G#           Bb
One night, one dream, gonna save it save it for me