Nate Sallie - All About You Text Guitar Tab

Learn song with the online tabulature player
Intro:

Guitar 1:
E:------------------|
B:------------------|
D:-5-5-----3-3------|play 4x and on the 4th
G:-5-5-5-5-3-3-3-3--|hold the last note
A:-3-3-5-5-1-1-3-3--|
E:-----3-3-----1-1--|

Guitar 2:
E:----12-13-12-13-15-13-12-13-12-13-12-13-12----|
B:-13----------------------------------------13-|
D:----------------------------------------------|
G:----------------------------------------------|
A:----------------------------------------------|
E:----------------------------------------------|

play 2x then at the end of the 2nd play
E:12-13-12-13-12-13-12\-|
B:----------------------|

Verses:
E:--------------------------------------------------------------------|
B:--------------------------------------------------------------------|
G:-5-5-5-5-5-5-5-----------------3-3-3-3-3-3-3-3----------------------|
D:-5-5-5-5-5-5-5-5-5-5-5-5-5-5-5-3-3-3-3-3-3-3-3-3-3-3-3-3-3-3-3play--| 4x
A:-3-3-3-3-3-3-3-5-5-5-5-5-5-5-5-1-1-1-1-1-1-1-1-3-3-3-3-3-3-3-3------|
E:---------------3-3-3-3-3-3-3-3-----------------1-1-1-1-1-1-1-1------|

Chorus:
E:
B:
G:-5-5-----3-3-----5-5-5-x-x-x-------------3-3-3-x-x-x-------------------|
D:-5-5-5-5-3-3-3-3-5-5-5-x-x-x-5-5-5-x-x-x-3-3-3-x-x-x-3-3-3-3-3-3-3-3-5-|
A:-3-3-5-5-1-1-3-3-3-3-3-x-x-x-5-5-5-x-x-x-1-1-1-x-x-x-3-3-3-3-3-3-3-3-5-|
E:-----3-3-----1-1-------------3-3-3-x-x-x-------------1-1-1-1-1-1-1-1-3-|