National Product - By All Means Text Guitar Tab

Learn the song with the online tablature player
Artist: National Product
Song: By All Means
Album: Luna

                              Guitar 1:

Intro and Verse :
d#:---------------------------------------------------------------------:
A#:---------------------------------------------------------------------:
F#:--------------------------------------------------------------9-99-9-:
C#:9-7-9h11------9-7-9h11-------9-7-9h11------9-7-9h11-11---11---x-xx-x-:
G#:9-7-9h11------9-7-9h11-------9-7-9h11------9-7-9h11-11---11---7-77-7-:
D#:7-5-7h9-------7-5-7h9--------7-5-7h9-------7-5-7h9---9----9----------:

Chorus
(r=11)

d#:-------------------------------------------------:
A#:-------------------------------------------------:
F#:-------------------------------------------------:
C#:9-11-7777777799999999rrrrrrrr99999999-6666666666-:
G#:9-11-7777777799999999rrrrrrrr99999999-4444444444-:
D#:7--9-55555555777777779999999977777777-4444444444-:

d#:-----------------------------------------------------:
A#:-----------------------------------------------------:
F#:-----------------------------------------------------:
C#:9-7-9h11-77777777999999997777777799999999rrrrrr999999:
G#:9-7-9h11-77777777999999997777777799999999rrrrrr999999:
D#:7-5-7h9--55555555777777775555555577777777999999777777:

Repeat Intro and Verse
Repeat Chorus

Interlude
(r=11)

d#:--------------:
A#:--------------:
F#:--------------:
C#:999999-rrrrrr-:
G#:999999-rrrrrr-:
D#:777777-999999-:

Bridge
8x

d#:-----------:
A#:-----------:
F#:-----------:
C#:-----------:
G#:-----------:
D#:0-2--22-0-2:

Bridge 2
(2x)
d#:-----------------------------------------------------:
A#:-----------------------------------------------------:
F#:-------------------6-7--77--6-7--77-6-7--77--6-7--77-:
C#:-------------------x-x--xx--x-x--xx-x-x--xx--x-x--xx-:
G#:-------------------4-5--55--4-5--55-4-5--55--4-5--55-:
D#:0-2--22--0-2--22-------------------------------------:

Repeat Chorus
Repeat Interlude

Outro
2x

d#:-------------------------------------------------------------:
A#:-------------------------------------------------------------:
F#:-------------------------------------------------------------:
C#:-------------------------------------------------------------:
G#:-------------------------------------------------------------:
D#:0-2-22-0-2-22-0-2-22-4-5-55-4-5-55-6-7-77-6-7-77--7-777h9-999:

d#:-----:
A#:-----:
F#:-----:
C#:4~---:
G#:4~---:
D#:2~---:

                           Guitar 2

Intro
4x (these are 14's and 12's)

d#:---------------:
A#:---------------:
F#:---------------:
C#:14141414141414-:
G#:xxxxxxxxxxxxx--:
D#:12121212121212-:

Verse
4x  (11's)

d#:---------------:
A#:---------------:
F#:---------------:
C#:11111111111111-:
G#:xxxxxxxxxxxxx--:
D#:9999999999999--:

Verse part 2: 2x

d#:------------------------------------:
A#:------------------------------------:
F#:------------------------------------:
C#:11111111111111-------13131313131313-:
G#:xxxxxxxxxxxxx--------xxxxxxxxxxxxx--:
D#:9999999999999--------11111111111111-:

Chorus

Same as Guitar 1

Verse
4x  .=palm mute

d#:---------------:
A#:---------------:
F#:---------------:
C#:11111111111111-:
G#:xxxxxxxxxxxxx--:
D#:9999999999999--:
   .............

Verse part 2: 2x

d#:------------------------------------:
A#:------------------------------------:
F#:------------------------------------:
C#:11111111111111-------13131313131313-:
G#:xxxxxxxxxxxxx--------xxxxxxxxxxxxx--:
D#:9999999999999--------11111111111111-:
   .............        .............

Repeat Chorus

Bridge
8x

d#:---------------:
A#:---------------:
F#:6/7-77-6/7-77--:
C#:---------------:
G#:---------------:
D#:---------------:

Repeat Chorus

Outro
2x

d#:-------------------------------------------------------------:
A#:-------------------------------------------------------------:
F#:-------------------------------------------------------------:
C#:-------------------------------------------------------------:
G#:-------------------------------------------------------------:
D#:0-2-22-0-2-22-0-2-22-4-5-55-4-5-55-6-7-77-6-7-77--7-777h9-999:

d#:-----:
A#:-----:
F#:-----:
C#:4~---:
G#:4~---:
D#:2~---: