National Product - Where Do You Go Text Guitar Tab

Learn the song with the online tablature player
Intro

e--0--0--0--0-----4---------|
B--0--0--0--0---------------|
G--6--9--4--6--2--2--2------|
D--6--9--4--6--2--2--2------|
A--4--7--2--4--0--0--0------|
E--x--x--x--x---------------|

VERSE

"Staring Again at the sealing
watching you walk away…
 Wander eyes…sallow breathing…I don’t think its right…”
e--------------------------------|
B--------5------------------5----|
G------6---6--------------6---6--|
D—---6----palm mute-----6--------|
A—-4------------------x----------|
E-------------------5------------|

“To wonder what been going on without you…
 And let somebody hold me back…
 Obviously you don’t need to give me a chance”

e--0--0--0--0-----------|
B--0--0--0--0-----------|
G--6--2--6--2-----------|
D--6--2--6--2-----------|
A--4--0--4--0-----------|
E--x--x--x--x-----------|

Verse 2

“Pasting your house in the evening…
 Your room where I used to mate
 Light It Off, Light It Off
 Questions Of Where You Are Tonight?”

e--------------------------------|
B--------5------------------5----|
G------6---6--------------6---6--|
D—---6----palm mute-----6--------|
A—-4------------------x----------|
E-------------------5------------|

 Bridge
“So Where Are You
 Where Are You?!”

e--0--0--0--0-----------|
B--0--0--0--0-----------|
G--6--2--6--2-----------|
D--6--2--6--2-----------|
A--4--0--4--0-----------|
E--x--x--x--x-----------|

 Chorus

“Where Do You Go When I’m Wishing
 You Gone. Good Night Miss You So
 Much Do You Miss Me At All”

e--0--0--0---0-------------|
B--0--0--0---0-------------|
G--9--8--0---0-------------|
D--9--9--11--7-------------|
A--7--9--11--7-------------|
E--x--7--9---5-------------|

Back To Intro

e--0--0--0--0-----4---------|
B--0--0--0--0---------------|
G--6--9--4--6--2--2--2------|
D--6--9--4--6--2--2--2------|
A--4--7--2--4--0--0--0------|
E--x--x--x--x---------------|

“I hope You Are Living Well!
 I hope You Are Living Well!
 I hope You Are Living Well!
 I hope You Are Living Well!
 Well!”

e--0--0--0--0-----------|
B--0--0--0--0-----------|
G--6--2--6--2-----------|
D--6--2--6--2-----------|
A--4--0--4--0-----------|
E--x--x--x--x-----------|

Chorus

“Where Do You go. When I’m Wishing
 You Gone. Good Night Miss You So
 Much Do You Miss Me At All”

e--0--0--0---0-------------|
B--0--0--0---0-------------|
G--9--8--0---0-------------|
D--9--9--11--7-------------|
A--7--9--11--7-------------|
E--x--7--9---5-------------|

Bridge
“Do You Ever Do miss my Sallyationaworld
 Do You Ever Do miss my Sallyationaworld
 Do You Ever Do miss my Sallyationaworld
 Do You Miss Me At All?!”

e--0--0--0---0-------------|
B--0--0--0---0-------------|
G--9--8--0---0-------------|
D--9--9--11--7-------------|
A--7--9--11--7-------------|
E--x--7--9---5-------------|

“Where Do You Go When I’m Wishing
 You Gone. Good Night Miss You So
 Much Do You Miss Me At All”

e--0--0--0---0-------------|
B--0--0--0---0-------------|
G--9--8--0---0-------------|
D--9--9--11--7-------------|
A--7--9--11--7-------------|
E--x--7--9---5-------------|

There u go!!
Thats the song
PLEASE RATE!!!