Native - Pocket Jingle Text Guitar Tab

Learn song with the online tabulature player
"Pocket Jingle" - Native

myspace.com/nativein
native.bandcamp.com/track/pocket-jingle

guitar one (right ear)

E|-----------7----------------------------------------------|
B|---5--------------5------7-5-(0)--------------------------|
G|-6--------------6-----------------------------------------|
D|--------6-------------6-----------------------------------|
A|------7-------------7-------------------------------------|
E|----------------------------------------------------------|

the (0) is only played sometimes
once during the song, the second 6 5 isn't played but instead it plays

E|---------7--|
B|------------|
G|---6--------|
D|-6-----6----|
A|-----7------|
E|------------|

just play around with those shapes