Nausea - Here Today Text Guitar Tab

Learn song with the online tabulature player
-------------------------------------------------------------------------------
                            Here Today - Nausea
-------------------------------------------------------------------------------
Tabbed by:Matt
Email:juzcheknmail@aol.com

NO NAUSEA???? I thought "wow that sucks" so i figured out a few songs for the site.
Here is one, and it's the first track off if "The Punk Terrorist Anthology"

Tuning:Down 1-step

Intro x3 let each chord ring
d|--------------------------------------------------------------------------------|
A|--------------------------------------------------------------------------------|
F|--------------------------------------------------------------------------------|
C|--------------------------------------------------------------------------------|
G|-2------5-------7---------------------------------------------------------------|
D|-0------3-------5---------------------------------------------------------------|

Verse
d|-----------------------------------------------------------------------------------|
A|-----------------------------------------------------------------------------------|
F|-----------------------------------------------------------------------------------|
C|-----------------------------------------------------------------------------------|
G|---2--5--7--2--8--7----------------------------------------------------------------|
D|---0--3--5--0--6--5----------------------------------------------------------------|

Chorus
d|------------------------------------------------------------------------------------|
A|------------------------------------------------------------------------------------|
F|------------------------------------------------------------------------------------|
C|------7--6--7--6--7--6--9-----------------------------------------------------------|
G|------5--4--5--4--5--4--7-----------------------------------------------------------|
D|------------------------------------------------------------------------------------|

Sorry too lazy to figure out solo, lost the figuring out song mood or something. Just 
the verse and chorus riffs into the right parts of the song and you'll be the supa dupa dude.