Nausea - Technologickill Text Guitar Tab

Learn song with the online tabulature player
you have to listen to the song and match your tuning.

Part 1
e-------------------------|
B-------------4-3-4---4---|
G-----------5-------5-----|
D---------5---------------|
A-------3-----------------|
E-------------------------|

Part 2
e-------------------------|
B-------------------------|
G-----------7-------------|
D-------6-----6---6-------|
A-----6---6-----6---------|
E---4---------------------|

Second guitar plays right before
e---3-sl-8----8-sl-4------|
B-------------------------|
G---part-1----part-2------|
D-------------------------|
A-------------------------|
E-------------------------|