Nautilus Pompilius - Dihanie Text Guitar Tab

Learn the song with the online tablature player
Intro/Chorus:

G-------------------------|
D---0-4-0---------2-------|
A-2-------4-2-0-4---4-2-0-|
E-------------------------|

G--------------------------|
D---0-4-0------------------|
A-2-------4-2---2-5--4-5-5-|
E-------------3------------|

Verse

G-----------------------------|
D-----7-7-7/9-7---------7/9-7-|
A-5-5---------------7-7-------|
E---------------5-5-----------|

G-------------------------------|
D-----4-4-4/5-4---------4/5-4---|
A-2-2---------------4-4---------|
E---------------2-2-------------|

G--------------------------------------------|
D---------5/7-5-4-2--------------------------|
A-----5-5-----------5-4-2-------2-2--2-2---2-|
E-3-3---------------------3-2-0----------2---|

Ending

G---------------------------|
D----0-4-0----------2-------|
A-2-2------4-2-0-04---4-2-0-|
E---------------------------|

G------------------------------|
D----0-4-0---------------------|
A-2-2------4-2-0----2-5--5-4-5-|
E----------------3-3-----------|