Nazareth - Bad Bad Boy Text Guitar Tab

Learn song with the online tabulature player
Nazareth - Bad Bad Boy
From Razamanaz (1973)


Help:

~    vibrato
b    bend
p.m. palm mute
X    repeat
/    slide up
\    slide down


Intro:
|----------------------13~-|
|--/19~---16-16-16-16--13~-|
|--/19~--------------------|  X2
|--------------------------|
|--------------------------|
|--------------------------|


|--------------------------|
|----------------------12~-|
|--/18~---15-15-15-15--12~-|
|--/18~--------------------|
|--------------------------|
|--------------------------|


|----------------------13~-|
|--/19~---16-16-16-16--13~-|
|--/19~--------------------|
|--------------------------|
|--------------------------|
|--------------------------|


|--------------------------|
|--------------------------|
|--/18~--18\13~------------|
|--/18~--18\13~------------|
|--------------------------|
|--------------------------|


/
||-------------------------|
||-------------------------|
||-------------------------|
||-------------------------|
||-2-3-4-5-6-7-8-9---------|
||-------------------------|
|
|Bass:
||--------------------------|
||--------------------------|
||--------------------------|
\|--3-2-3-4-5-4-5-6-7-6-7-9-|


Chorus:
|----------------------13~-|
|--/19~---16-16-16-16--13~-|
|--/19~--------------------|  X2
|--------------------------|
|--------------------------|
|--------------------------|


|--------------------------|
|--------------------------|
|--/18~--18\13~------------|
|--/18~--18\13~------------|
|--------------------------|
|--------------------------|


/
||-------------------------|
||-------------------------|
||-------------------------|
||-------------------------|
||-2-3-4-5-6-7-8-9---------|
||-------------------------|
|
|Bass:
||--------------------------|
||--------------------------|
||--------------------------|
\|--3-2-3-4-5-4-5-6-7-6-7-9-|


Verse:

|--------------------------|
|--------------------------|
|--------------------------|
|--------------------------| p.m.
|--5-7---5-7---5-7---------|
|--3-5---3-5---3-5---------|


|--------------------------|
|--------------------------|
|--------------------------|
|--------------------------|
|--5--5---5-5-5------------| p.m.
|--3--3---3-3-3------------|

Chorus

Verse

Chorus

Interlude:
|--------------------------|
|--14b---------------\-----|
|--14b---------------\-----|
|--------------------------|
|--------------------------|
|--------------------------|

Solo

End of solo (bass):
|--------------------------|
|--------------------------|
|--------------------------|
|--3-2-3-4-5-4-5-6-7-6-7-9-|

Verse

Chorus

Outro (Chorus) X2

Fade Out