Nazareth - Miss Misery Text Guitar Tab

Learn the song with the online tablature player
                             MISS MISERY - Nazareth

VERSE RIFF
e|--------------------------------------------------------------------------|
B|--------------------------------------------------------------------------|
G|----------5/7----------7---5----------------------------------------------|
D|--5/7-----5/7----5/7---7---5---Play as many times as needed---------------|
A|--5/7-----3/5----5/7---5---3----------------------------------------------|
E|--3/5------------3/5------------------------------------------------------|

VERSE RIFF 2
e|--------------------------------------------------------------------------|
B|--------------------------------------------------------------------------|
G|---------7/9-----------7----5---------------------------------------------|
D|--7/9----7/9----7/9----7----5-----2---------------------------------------|
A|--7/9----5/7----7/9----5----3-----2---------------------------------------|
E|--5/7-----------5/7---------------0---------------------------------------|

Chorus
e|--------------------------------------------------------------------------|
B|--------------------------------------------------------------------------|
G|--------------------------------------------------------------------------|
D|---2--4----5/7---------2--4---7-------------------------------------------|
A|---2--4----5/7---X4----2--4---7-------------------------------------------|
E|---0--2----3/5---------0--2---5-------------------------------------------|

And Return to the Verse riff after that =] Good luck!

Sorry about no solo.

| /   slide up
| \   slide down
| h   hammer-on
| p   pull-off
| ~   vibrato
| +   harmonic
| x   Mute note
| b   Bend
| pb  Pre-bend
| br  Bend release
| pbr Pre-bend release
| brb Bend release bend