Nazz - Open My Eyes Text Guitar Tab

Learn the song with the online tablature player
"Open My Eyes"
 The Nazz

Keyboard Intro, arranged for guitar:

E---4--------2---------------9-----------7-----------------------|
B---5--------3---------------10----------9-----------------------|
G---4--------4---------------11----------9-----------------------|
D----------------------------------------------------------------|
A----------------------------------------------------------------|
E---0--------3---------------10----------0-----------------------|
   E       Gmaj7         Dmaj7          E

Main Riff:
E----------------------------------------------------------------|
B----------------------------------------------------------------|
G----------------------------------------------------------------|
D----------------------------------------------------------------|
A-------------------------5--6--7--------------------------------|
E----5--2--3--4--5--6--7-----------------------------------------|

Or:

E----------------------------------------------------------------|
B----------------------------------------------------------------|
G----------------------------------------------------------------|
D---------------------------0--1--2------------------------------|
A-----------------0--1--2----------------------------------------|
E----5--2--3--4--------------------------------------------------|

Bridge
(The slower part)

 E                                 Cmaj7
Can't see a thing til' you open my eyes

       Bm7              D/E     Amaj7
Can't believe that it's on your mind

              G     F/G
To leave me behind...

(D/E = xx2232
 F/G = 3x3211)