Ne-Yo - Sexy Love Text Guitar Tab

Learn the song with the online tablature player
                             Sexy Love - Ne-Yo

Verse & Chorus:
    Ab     Bb         Gm    Ab   Ab   Bb        Gm    Ab
e|-----3--------------3-------------3-----------3-6--------------|
B|--4------6-----4--6---3---4-----4-----6--4-6--------4----------|
G|--5------7----------3-----5-----5-----7-------3-----5----------| Repeat
D|--6------8----------3-----6-----6-----8-------3-----6----------|
A|--6------8----------------6-----6-----8-------------6----------|
E|--4------6----------3-----4-----4-----6-------3-----4----------|

    Ab         Ab  Eb  Bb
e|---------------------------------|
B|--4-----------4---8---6----------|
G|--5-----------5---8---7----------|
D|--6-----------6---8---8----------|
A|--6-----------6---6---8----------|
E|--4-----------4-------6----------|

Bridge
e|-----------------------------------------------------------------4----|
B|-4--4--4--4--4-----5--5--5--5--5----2--2--2--2--2--2----4--4----4--4-6|
G|--3--3--3--3--3-3---6--6--6--6--6-6--1--1--1--1--1--1-1--3--3--3------|
D|---6--6--6--6--6-----8--8--8--8--8----4--4--4--4--4--4----6--6--------|
A|----------------------------------------------------------------------|
E|----------------------------------------------------------------------|

e|------------------------------------------------------------------|
B|-4--4--4--4--4-----5--5--5--5--5----2--2--2--2--2--2-----4--3-----|
G|--3--3--3--3--3-3---6--6--6--6--6-6--1--1--1--1--1--1-1--3--3-----|
D|---6--6--6--6--6-----8--8--8--8--8----4--4--4--4--4--4---6--------|
A|------------------------------------------------------------------|
E|------------------------------------------------------------------|

Back To Verse & Chorus chords. You can work out the form yourself. You pretty much play
chords over and over again. Just use your ears.